  0
SECTION
  2
HEADER
  9
$ACADVER
  1
AC1015
  9
$ACADMAINTVER
 70
    20
  9
$DWGCODEPAGE
  3
ANSI_1250
  9
$INSBASE
 10
0.0
 20
0.0
 30
0.0
  9
$EXTMIN
 10
6967.931311208393
 20
2421.698762352184
 30
0.0
  9
$EXTMAX
 10
8167.931311208393
 20
3958.869339654301
 30
0.0
  9
$LIMMIN
 10
0.0
 20
0.0
  9
$LIMMAX
 10
8910.0
 20
6300.0
  9
$ORTHOMODE
 70
     1
  9
$REGENMODE
 70
     1
  9
$FILLMODE
 70
     1
  9
$QTEXTMODE
 70
     0
  9
$MIRRTEXT
 70
     0
  9
$LTSCALE
 40
30.0
  9
$ATTMODE
 70
     1
  9
$TEXTSIZE
 40
0.2
  9
$TRACEWID
 40
0.05
  9
$TEXTSTYLE
  7
Standard
  9
$CLAYER
  8
0
  9
$CELTYPE
  6
ByLayer
  9
$CECOLOR
 62
   256
  9
$CELTSCALE
 40
1.0
  9
$DISPSILH
 70
     0
  9
$DIMSCALE
 40
1.0
  9
$DIMASZ
 40
1.799999999999999
  9
$DIMEXO
 40
0.0625
  9
$DIMDLI
 40
0.38
  9
$DIMRND
 40
0.0
  9
$DIMDLE
 40
0.0
  9
$DIMEXE
 40
0.18
  9
$DIMTP
 40
0.0
  9
$DIMTM
 40
0.0
  9
$DIMTXT
 40
0.25
  9
$DIMCEN
 40
0.09
  9
$DIMTSZ
 40
0.0
  9
$DIMTOL
 70
     0
  9
$DIMLIM
 70
     0
  9
$DIMTIH
 70
     1
  9
$DIMTOH
 70
     1
  9
$DIMSE1
 70
     0
  9
$DIMSE2
 70
     0
  9
$DIMTAD
 70
     0
  9
$DIMZIN
 70
     0
  9
$DIMBLK
  1

  9
$DIMASO
 70
     1
  9
$DIMSHO
 70
     1
  9
$DIMPOST
  1

  9
$DIMAPOST
  1

  9
$DIMALT
 70
     0
  9
$DIMALTD
 70
     2
  9
$DIMALTF
 40
25.4
  9
$DIMLFAC
 40
1.0
  9
$DIMTOFL
 70
     0
  9
$DIMTVP
 40
0.0
  9
$DIMTIX
 70
     0
  9
$DIMSOXD
 70
     0
  9
$DIMSAH
 70
     0
  9
$DIMBLK1
  1

  9
$DIMBLK2
  1

  9
$DIMSTYLE
  2
Standard
  9
$DIMCLRD
 70
     0
  9
$DIMCLRE
 70
     0
  9
$DIMCLRT
 70
     0
  9
$DIMTFAC
 40
1.0
  9
$DIMGAP
 40
0.09
  9
$DIMJUST
 70
     0
  9
$DIMSD1
 70
     0
  9
$DIMSD2
 70
     0
  9
$DIMTOLJ
 70
     1
  9
$DIMTZIN
 70
     0
  9
$DIMALTZ
 70
     0
  9
$DIMALTTZ
 70
     0
  9
$DIMUPT
 70
     0
  9
$DIMDEC
 70
     4
  9
$DIMTDEC
 70
     4
  9
$DIMALTU
 70
     2
  9
$DIMALTTD
 70
     2
  9
$DIMTXSTY
  7
Standard
  9
$DIMAUNIT
 70
     0
  9
$DIMADEC
 70
     0
  9
$DIMALTRND
 40
0.0
  9
$DIMAZIN
 70
     0
  9
$DIMDSEP
 70
    46
  9
$DIMATFIT
 70
     3
  9
$DIMFRAC
 70
     0
  9
$DIMLDRBLK
  1

  9
$DIMLUNIT
 70
     2
  9
$DIMLWD
 70
    -2
  9
$DIMLWE
 70
    -2
  9
$DIMTMOVE
 70
     0
  9
$LUNITS
 70
     2
  9
$LUPREC
 70
     4
  9
$SKETCHINC
 40
0.1
  9
$FILLETRAD
 40
0.0
  9
$AUNITS
 70
     0
  9
$AUPREC
 70
     0
  9
$MENU
  1
.
  9
$ELEVATION
 40
0.0
  9
$PELEVATION
 40
0.0
  9
$THICKNESS
 40
0.0
  9
$LIMCHECK
 70
     0
  9
$CHAMFERA
 40
0.0
  9
$CHAMFERB
 40
0.0
  9
$CHAMFERC
 40
0.0
  9
$CHAMFERD
 40
0.0
  9
$SKPOLY
 70
     0
  9
$TDCREATE
 40
2458683.333915486
  9
$TDUCREATE
 40
2458683.250582153
  9
$TDUPDATE
 40
2458683.397494989
  9
$TDUUPDATE
 40
2458683.314161655
  9
$TDINDWG
 40
0.0075248611
  9
$TDUSRTIMER
 40
0.0075247569
  9
$USRTIMER
 70
     1
  9
$ANGBASE
 50
0.0
  9
$ANGDIR
 70
     0
  9
$PDMODE
 70
     0
  9
$PDSIZE
 40
0.0
  9
$PLINEWID
 40
0.0
  9
$SPLFRAME
 70
     0
  9
$SPLINETYPE
 70
     6
  9
$SPLINESEGS
 70
     8
  9
$HANDSEED
  5
A21
  9
$SURFTAB1
 70
     6
  9
$SURFTAB2
 70
     6
  9
$SURFTYPE
 70
     6
  9
$SURFU
 70
     6
  9
$SURFV
 70
     6
  9
$UCSBASE
  2

  9
$UCSNAME
  2

  9
$UCSORG
 10
0.0
 20
0.0
 30
0.0
  9
$UCSXDIR
 10
1.0
 20
0.0
 30
0.0
  9
$UCSYDIR
 10
0.0
 20
1.0
 30
0.0
  9
$UCSORTHOREF
  2

  9
$UCSORTHOVIEW
 70
     0
  9
$UCSORGTOP
 10
0.0
 20
0.0
 30
0.0
  9
$UCSORGBOTTOM
 10
0.0
 20
0.0
 30
0.0
  9
$UCSORGLEFT
 10
0.0
 20
0.0
 30
0.0
  9
$UCSORGRIGHT
 10
0.0
 20
0.0
 30
0.0
  9
$UCSORGFRONT
 10
0.0
 20
0.0
 30
0.0
  9
$UCSORGBACK
 10
0.0
 20
0.0
 30
0.0
  9
$PUCSBASE
  2

  9
$PUCSNAME
  2

  9
$PUCSORG
 10
0.0
 20
0.0
 30
0.0
  9
$PUCSXDIR
 10
1.0
 20
0.0
 30
0.0
  9
$PUCSYDIR
 10
0.0
 20
1.0
 30
0.0
  9
$PUCSORTHOREF
  2

  9
$PUCSORTHOVIEW
 70
     0
  9
$PUCSORGTOP
 10
0.0
 20
0.0
 30
0.0
  9
$PUCSORGBOTTOM
 10
0.0
 20
0.0
 30
0.0
  9
$PUCSORGLEFT
 10
0.0
 20
0.0
 30
0.0
  9
$PUCSORGRIGHT
 10
0.0
 20
0.0
 30
0.0
  9
$PUCSORGFRONT
 10
0.0
 20
0.0
 30
0.0
  9
$PUCSORGBACK
 10
0.0
 20
0.0
 30
0.0
  9
$USERI1
 70
     0
  9
$USERI2
 70
     0
  9
$USERI3
 70
     0
  9
$USERI4
 70
     0
  9
$USERI5
 70
     0
  9
$USERR1
 40
0.0
  9
$USERR2
 40
0.0
  9
$USERR3
 40
0.0
  9
$USERR4
 40
0.0
  9
$USERR5
 40
0.0
  9
$WORLDVIEW
 70
     1
  9
$SHADEDGE
 70
     3
  9
$SHADEDIF
 70
    70
  9
$TILEMODE
 70
     1
  9
$MAXACTVP
 70
    64
  9
$PINSBASE
 10
0.0
 20
0.0
 30
0.0
  9
$PLIMCHECK
 70
     0
  9
$PEXTMIN
 10
0.0
 20
0.0
 30
0.0
  9
$PEXTMAX
 10
8910.0
 20
6300.0
 30
0.0
  9
$PLIMMIN
 10
0.0
 20
0.0
  9
$PLIMMAX
 10
8910.0
 20
6300.0
  9
$UNITMODE
 70
     0
  9
$VISRETAIN
 70
     1
  9
$PLINEGEN
 70
     0
  9
$PSLTSCALE
 70
     1
  9
$TREEDEPTH
 70
  3020
  9
$CMLSTYLE
  2
Standard
  9
$CMLJUST
 70
     0
  9
$CMLSCALE
 40
1.0
  9
$PROXYGRAPHICS
 70
     1
  9
$MEASUREMENT
 70
     1
  9
$CELWEIGHT
370
    -1
  9
$ENDCAPS
280
     0
  9
$JOINSTYLE
280
     0
  9
$LWDISPLAY
290
     0
  9
$INSUNITS
 70
     4
  9
$HYPERLINKBASE
  1
WWW.MULLER.COM.PL
  9
$STYLESHEET
  1

  9
$XEDIT
290
     1
  9
$CEPSNTYPE
380
     0
  9
$PSTYLEMODE
290
     1
  9
$FINGERPRINTGUID
  2
{C80FCE1B-878F-40A2-9AEB-73793E9C6AC6}
  9
$VERSIONGUID
  2
{24C8768F-2B28-4D8C-B9F8-C3A35C10E4BF}
  9
$EXTNAMES
290
     1
  9
$PSVPSCALE
 40
0.0
  9
$OLESTARTUP
290
     0
  0
ENDSEC
  0
SECTION
  2
CLASSES
  0
CLASS
  1
ACDBDICTIONARYWDFLT
  2
AcDbDictionaryWithDefault
  3
ObjectDBX Classes
 90
        0
280
     0
281
     0
  0
CLASS
  1
MATERIAL
  2
AcDbMaterial
  3
ObjectDBX Classes
 90
     1153
280
     0
281
     0
  0
CLASS
  1
VISUALSTYLE
  2
AcDbVisualStyle
  3
ObjectDBX Classes
 90
     4095
280
     0
281
     0
  0
CLASS
  1
SCALE
  2
AcDbScale
  3
ObjectDBX Classes
 90
     1153
280
     0
281
     0
  0
CLASS
  1
TABLESTYLE
  2
AcDbTableStyle
  3
ObjectDBX Classes
 90
     4095
280
     0
281
     0
  0
CLASS
  1
MLEADERSTYLE
  2
AcDbMLeaderStyle
  3
ACDB_MLEADERSTYLE_CLASS
 90
     4095
280
     0
281
     0
  0
CLASS
  1
CELLSTYLEMAP
  2
AcDbCellStyleMap
  3
ObjectDBX Classes
 90
     1152
280
     0
281
     0
  0
CLASS
  1
DICTIONARYVAR
  2
AcDbDictionaryVar
  3
ObjectDBX Classes
 90
        0
280
     0
281
     0
  0
CLASS
  1
ACDBPLACEHOLDER
  2
AcDbPlaceHolder
  3
ObjectDBX Classes
 90
        0
280
     0
281
     0
  0
CLASS
  1
LAYOUT
  2
AcDbLayout
  3
ObjectDBX Classes
 90
        0
280
     0
281
     0
  0
CLASS
  1
EXACXREFPANELOBJECT
  2
ExAcXREFPanelObject
  3
EXAC_ESW
 90
     1025
280
     0
281
     0
  0
CLASS
  1
NPOCOLLECTION
  2
AcDbImpNonPersistentObjectsCollection
  3
ObjectDBX Classes
 90
     1153
280
     0
281
     0
  0
CLASS
  1
SORTENTSTABLE
  2
AcDbSortentsTable
  3
ObjectDBX Classes
 90
        0
280
     0
281
     0
  0
CLASS
  1
ACAD_EVALUATION_GRAPH
  2
AcDbEvalGraph
  3
ObjectDBX Classes
 90
     1153
280
     0
281
     0
  0
CLASS
  1
ACAECUSTOBJ
  2
AcAeEditorObj
  3
AcAeEditorObj
 90
     1024
280
     0
281
     0
  0
CLASS
  1
ACDB_DYNAMICBLOCKPURGEPREVENTER_VERSION
  2
AcDbDynamicBlockPurgePreventer
  3
ObjectDBX Classes
 90
     1153
280
     0
281
     0
  0
ENDSEC
  0
SECTION
  2
TABLES
  0
TABLE
  2
VPORT
  5
8
102
{ACAD_XDICTIONARY
360
403
102
}
330
0
100
AcDbSymbolTable
 70
     1
  0
VPORT
  5
57
330
8
100
AcDbSymbolTableRecord
100
AcDbViewportTableRecord
  2
*Active
 70
     0
 10
0.0
 20
0.0
 11
1.0
 21
1.0
 12
8154.006931949645
 22
3048.270956838784
 13
0.0
 23
0.0
 14
1.0
 24
1.0
 15
0.0
 25
0.0
 16
0.0
 26
0.0
 36
1.0
 17
0.0
 27
0.0
 37
0.0
 40
3127.903378114214
 41
2.430203045685279
 42
50.0
 43
0.0
 44
0.0
 50
0.0
 51
0.0
 71
     0
 72
   100
 73
     1
 74
     1
 75
     0
 76
     0
 77
     0
 78
     0
281
     0
 65
     1
110
0.0
120
0.0
130
0.0
111
1.0
121
0.0
131
0.0
112
0.0
122
1.0
132
0.0
 79
     0
146
0.0
  0
ENDTAB
  0
TABLE
  2
LTYPE
  5
5
330
0
100
AcDbSymbolTable
 70
     2
  0
LTYPE
  5
5B
330
5
100
AcDbSymbolTableRecord
100
AcDbLinetypeTableRecord
  2
ByBlock
 70
     0
  3

 72
    65
 73
     0
 40
0.0
  0
LTYPE
  5
5C
330
5
100
AcDbSymbolTableRecord
100
AcDbLinetypeTableRecord
  2
ByLayer
 70
     0
  3

 72
    65
 73
     0
 40
0.0
  0
LTYPE
  5
5D
330
5
100
AcDbSymbolTableRecord
100
AcDbLinetypeTableRecord
  2
Continuous
 70
     0
  3
Solid line
 72
    65
 73
     0
 40
0.0
  0
ENDTAB
  0
TABLE
  2
LAYER
  5
2
330
0
100
AcDbSymbolTable
 70
     2
  0
LAYER
  5
54
330
2
100
AcDbSymbolTableRecord
100
AcDbLayerTableRecord
  2
0
 70
     0
 62
     7
  6
Continuous
370
    -3
390
F
  0
LAYER
  5
C8
330
2
100
AcDbSymbolTableRecord
100
AcDbLayerTableRecord
  2
Visible (ISO)
 70
     0
 62
     7
  6
Continuous
370
    35
390
F
  0
ENDTAB
  0
TABLE
  2
STYLE
  5
3
330
0
100
AcDbSymbolTable
 70
     1
  0
STYLE
  5
55
330
3
100
AcDbSymbolTableRecord
100
AcDbTextStyleTableRecord
  2
Standard
 70
     0
 40
0.0
 41
1.0
 50
0.0
 71
     0
 42
0.2
  3
tahoma.ttf
  4

1001
ACAD
1000
Tahoma
1071
      256
  0
ENDTAB
  0
TABLE
  2
VIEW
  5
6
330
0
100
AcDbSymbolTable
 70
     0
  0
ENDTAB
  0
TABLE
  2
UCS
  5
7
330
0
100
AcDbSymbolTable
 70
     0
  0
ENDTAB
  0
TABLE
  2
APPID
  5
9
330
0
100
AcDbSymbolTable
 70
     8
  0
APPID
  5
56
330
9
100
AcDbSymbolTableRecord
100
AcDbRegAppTableRecord
  2
ACAD
 70
     0
  0
APPID
  5
5E
330
9
100
AcDbSymbolTableRecord
100
AcDbRegAppTableRecord
  2
AcadAnnotative
 70
     0
  0
APPID
  5
1C6
330
9
100
AcDbSymbolTableRecord
100
AcDbRegAppTableRecord
  2
AcadAnnoPO
 70
     0
  0
APPID
  5
439
330
9
100
AcDbSymbolTableRecord
100
AcDbRegAppTableRecord
  2
ACAD_MLEADERVER
 70
     0
  0
APPID
  5
457
330
9
100
AcDbSymbolTableRecord
100
AcDbRegAppTableRecord
  2
ACAD_EXEMPT_FROM_CAD_STANDARDS
 70
     0
  0
APPID
  5
9D7
330
9
100
AcDbSymbolTableRecord
100
AcDbRegAppTableRecord
  2
ACAUTHENVIRON
 70
     0
  0
APPID
  5
9E3
330
9
100
AcDbSymbolTableRecord
100
AcDbRegAppTableRecord
  2
AcDbDynamicBlockTrueName
 70
     0
  0
APPID
  5
9E4
330
9
100
AcDbSymbolTableRecord
100
AcDbRegAppTableRecord
  2
AcDbDynamicBlockGUID
 70
     0
  0
ENDTAB
  0
TABLE
  2
DIMSTYLE
  5
A
330
0
100
AcDbSymbolTable
 70
     2
100
AcDbDimStyleTable
 71
     1
340
58
  0
DIMSTYLE
105
58
330
A
100
AcDbSymbolTableRecord
100
AcDbDimStyleTableRecord
  2
Standard
 70
     0
340
55
  0
ENDTAB
  0
TABLE
  2
BLOCK_RECORD
  5
1
330
0
100
AcDbSymbolTable
 70
     4
  0
BLOCK_RECORD
  5
6C
102
{ACAD_XDICTIONARY
360
4E9
102
}
330
1
100
AcDbSymbolTableRecord
100
AcDbBlockTableRecord
  2
*Model_Space
340
6F
  0
BLOCK_RECORD
  5
68
330
1
100
AcDbSymbolTableRecord
100
AcDbBlockTableRecord
  2
*Paper_Space
340
6B
  0
BLOCK_RECORD
  5
70
330
1
100
AcDbSymbolTableRecord
100
AcDbBlockTableRecord
  2
*Paper_Space0
340
73
  0
BLOCK_RECORD
  5
547
102
{ACAD_XDICTIONARY
360
9D8
102
}
330
1
100
AcDbSymbolTableRecord
100
AcDbBlockTableRecord
  2
2010M_Minikosz-do-koszykowki-z-tablica-laminatowa
340
0
310
2800000020000000200000000100080000000000000400000000000000000000000000000000000000000000000080000080000000808000800000008000800080800000C0C0C000C0DCC000F0CAA6000020400000206000002080000020A0000020C0000020E00000400000004020000040400000406000004080000040A0
310
000040C0000040E00000600000006020000060400000606000006080000060A0000060C0000060E00000800000008020000080400000806000008080000080A0000080C0000080E00000A0000000A0200000A0400000A0600000A0800000A0A00000A0C00000A0E00000C0000000C0200000C0400000C0600000C0800000C0
310
A00000C0C00000C0E00000E0000000E0200000E0400000E0600000E0800000E0A00000E0C00000E0E00040000000400020004000400040006000400080004000A0004000C0004000E00040200000402020004020400040206000402080004020A0004020C0004020E000404000004040200040404000404060004040800040
310
40A0004040C0004040E00040600000406020004060400040606000406080004060A0004060C0004060E00040800000408020004080400040806000408080004080A0004080C0004080E00040A0000040A0200040A0400040A0600040A0800040A0A00040A0C00040A0E00040C0000040C0200040C0400040C0600040C08000
310
40C0A00040C0C00040C0E00040E0000040E0200040E0400040E0600040E0800040E0A00040E0C00040E0E00080000000800020008000400080006000800080008000A0008000C0008000E00080200000802020008020400080206000802080008020A0008020C0008020E00080400000804020008040400080406000804080
310
008040A0008040C0008040E00080600000806020008060400080606000806080008060A0008060C0008060E00080800000808020008080400080806000808080008080A0008080C0008080E00080A0000080A0200080A0400080A0600080A0800080A0A00080A0C00080A0E00080C0000080C0200080C0400080C0600080C0
310
800080C0A00080C0C00080C0E00080E0000080E0200080E0400080E0600080E0800080E0A00080E0C00080E0E000C0000000C0002000C0004000C0006000C0008000C000A000C000C000C000E000C0200000C0202000C0204000C0206000C0208000C020A000C020C000C020E000C0400000C0402000C0404000C0406000C0
310
408000C040A000C040C000C040E000C0600000C0602000C0604000C0606000C0608000C060A000C060C000C060E000C0800000C0802000C0804000C0806000C0808000C080A000C080C000C080E000C0A00000C0A02000C0A04000C0A06000C0A08000C0A0A000C0A0C000C0A0E000C0C00000C0C02000C0C04000C0C06000
310
C0C08000C0C0A000F0FBFF00A4A0A000808080000000FF0000FF000000FFFF00FF000000FF00FF00FFFF0000FFFFFF004949494949494949494949494949494949494949494949494949494949494949494949494949494949494949FFFF4949494949494949494949494949494949494949494949494949494949FFFFFFFF
310
494949494949494949494949494949494949494949494949494949FFFF4949FFFF4949494949494949494949494949494949494949494949494949FF49494949FF4949494949494949494949494949494949494949494949494949FFFF4949FFFF4949494949494949494949494949494949494949494949494949FFFFFFFF
310
FFFF494949494949494949494949494949494949494949494949494949FFFFFFFF4949494949494949494949494949494949494949494949FFFFFFFFFFFFFFFFFFFFFFFFFFFF494949494949494949494949494949494949FFFF49494949FFFF49494949FF4949494949494949494949494949494949494949FFFF494949FF
310
FF494949FF49494949494949494949494949494949494949494949FFFF4949FFFF4949FF494949494949494949494949494949494949494949494949FF4949FFFF49FFFF49494949494949494949494949494949494949494949494949FF49FFFF49FF494949494949494949494949494949494949494949494949494949FF
310
FFFFFF4949494949494949494949494949494949494949494949494949494949FFFF494949494949494949494949494949494949494949494949494949494949FFFF494949494949494949494949494949494949494949494949494949494949FFFF4949494949494949494949494949494949494949494949494949494949
310
49FFFF494949494949494949494949494949494949494949494949494949494949FFFF494949494949494949494949494949494949494949494949494949494949FFFF494949494949494949494949494949494949494949494949494949494949FFFF49494949494949494949494949494949494949494949494949494949
310
4949FFFF494949494949494949494949494949494949494949494949494949494949FFFF494949494949494949494949494949494949494949494949494949494949FFFF494949494949494949494949494949494949494949494949494949494949FFFF494949494949494949494949494949494949494949494949494949
310
494949FFFF494949494949494949494949494949494949494949494949494949494949FFFF494949494949494949494949494949494949494949494949494949494949FFFF494949494949494949494949494949494949494949494949494949494949FFFF4949494949494949494949494949494949494949494949494949
310
49494949FFFF4949494949494949494949494949494949494949494949494949494949494949494949494949494949494949494949494949
102
{BLKREFS
331
6A4
102
}
1001
AcDbDynamicBlockGUID
1000
{2BFF74F5-4FD6-476B-94EB-3C578279BFE8}
1001
ACAD
1000
DesignCenter Data
1002
{
1070
     1
1070
     4
1002
}
  0
ENDTAB
  0
ENDSEC
  0
SECTION
  2
BLOCKS
  0
BLOCK
  5
6D
330
6C
100
AcDbEntity
  8
0
100
AcDbBlockBegin
  2
*Model_Space
 70
     0
 10
0.0
 20
0.0
 30
0.0
  3
*Model_Space
  1

  0
ENDBLK
  5
6E
330
6C
100
AcDbEntity
  8
0
100
AcDbBlockEnd
  0
BLOCK
  5
69
330
68
100
AcDbEntity
 67
     1
  8
0
100
AcDbBlockBegin
  2
*Paper_Space
 70
     0
 10
0.0
 20
0.0
 30
0.0
  3
*Paper_Space
  1

  0
ENDBLK
  5
6A
330
68
100
AcDbEntity
 67
     1
  8
0
100
AcDbBlockEnd
  0
BLOCK
  5
71
330
70
100
AcDbEntity
 67
     1
  8
0
100
AcDbBlockBegin
  2
*Paper_Space0
 70
     0
 10
0.0
 20
0.0
 30
0.0
  3
*Paper_Space0
  1

  0
ENDBLK
  5
72
330
70
100
AcDbEntity
 67
     1
  8
0
100
AcDbBlockEnd
  0
BLOCK
  5
548
330
547
100
AcDbEntity
  8
0
100
AcDbBlockBegin
  2
2010M_Minikosz-do-koszykowki-z-tablica-laminatowa
 70
     0
 10
0.0
 20
0.0
 30
0.0
  3
2010M_Minikosz-do-koszykowki-z-tablica-laminatowa
  1

  0
LINE
  5
87D
330
547
100
AcDbEntity
  8
Visible (ISO)
100
AcDbLine
 10
-4.000000000001818
 20
-1339.07426918517
 30
0.0
 11
-4.000000000001818
 21
-1342.831531694963
 31
0.0
  0
LINE
  5
87E
330
547
100
AcDbEntity
  8
Visible (ISO)
100
AcDbLine
 10
-3.657626485867694
 20
-1343.185778422481
 30
0.0
 11
3.657626485866785
 21
-1343.185778422481
 31
0.0
  0
LINE
  5
87F
330
547
100
AcDbEntity
  8
Visible (ISO)
100
AcDbLine
 10
3.999999999998181
 20
-1342.831531694963
 30
0.0
 11
3.999999999998181
 21
-1339.07426918517
 31
0.0
  0
LINE
  5
880
330
547
100
AcDbEntity
  8
Visible (ISO)
100
AcDbLine
 10
3.999999999998181
 20
-1336.497359756587
 30
0.0
 11
-4.000000000001818
 21
-1336.497359756587
 31
0.0
  0
LINE
  5
881
330
547
100
AcDbEntity
  8
Visible (ISO)
100
AcDbLine
 10
-4.000000000001818
 20
-1300.565401375699
 30
0.0
 11
3.999999999998181
 21
-1300.565401375699
 31
0.0
  0
LINE
  5
882
330
547
100
AcDbEntity
  8
Visible (ISO)
100
AcDbLine
 10
3.999999999998181
 20
-1300.565401375699
 30
0.0
 11
3.999999999998181
 21
-1298.270830446372
 31
0.0
  0
LINE
  5
883
330
547
100
AcDbEntity
  8
Visible (ISO)
100
AcDbLine
 10
-4.000000000001818
 20
-1298.270830446372
 30
0.0
 11
-4.000000000001818
 21
-1300.565401375699
 31
0.0
  0
LINE
  5
884
330
547
100
AcDbEntity
  8
Visible (ISO)
100
AcDbLine
 10
3.999999999998181
 20
-1298.270830446372
 30
0.0
 11
-4.000000000001818
 21
-1298.270830446372
 31
0.0
  0
LINE
  5
885
330
547
100
AcDbEntity
  8
Visible (ISO)
100
AcDbLine
 10
3.999999999998181
 20
-1300.565401375699
 30
0.0
 11
3.999999999998181
 21
-1323.067882883965
 31
0.0
  0
LINE
  5
886
330
547
100
AcDbEntity
  8
Visible (ISO)
100
AcDbLine
 10
-4.000000000001818
 20
-1300.565401375699
 30
0.0
 11
-4.000000000001818
 21
-1323.067882883965
 31
0.0
  0
LINE
  5
887
330
547
100
AcDbEntity
  8
Visible (ISO)
100
AcDbLine
 10
3.999999999998181
 20
-1363.542911514633
 30
0.0
 11
3.999999999998181
 21
-1367.351940973599
 31
0.0
  0
LINE
  5
888
330
547
100
AcDbEntity
  8
Visible (ISO)
100
AcDbLine
 10
-4.000000000001818
 20
-1363.542911514632
 30
0.0
 11
-4.000000000001818
 21
-1367.351940973599
 31
0.0
  0
LINE
  5
889
330
547
100
AcDbEntity
  8
Visible (ISO)
100
AcDbLine
 10
3.999999999998181
 20
-1367.351940973599
 30
0.0
 11
-4.000000000001818
 21
-1367.351940973599
 31
0.0
  0
LINE
  5
88A
330
547
100
AcDbEntity
  8
Visible (ISO)
100
AcDbLine
 10
-571.9991724906676
 20
-1976.752258733393
 30
0.0
 11
-571.9991724906676
 21
-1986.752258733394
 31
0.0
  0
LINE
  5
88B
330
547
100
AcDbEntity
  8
Visible (ISO)
100
AcDbLine
 10
-571.9991724906676
 20
-1976.752258733393
 30
0.0
 11
-579.9991724906676
 21
-1976.752258733393
 31
0.0
  0
LINE
  5
88C
330
547
100
AcDbEntity
  8
Visible (ISO)
100
AcDbLine
 10
-579.9991724906676
 20
-1986.752258733394
 30
0.0
 11
-579.9991724906676
 21
-1976.752258733393
 31
0.0
  0
LINE
  5
88D
330
547
100
AcDbEntity
  8
Visible (ISO)
100
AcDbLine
 10
-571.9991724906676
 20
-2026.752258733394
 30
0.0
 11
-571.9991724906676
 21
-1986.752258733394
 31
0.0
  0
LINE
  5
88E
330
547
100
AcDbEntity
  8
Visible (ISO)
100
AcDbLine
 10
-579.9991724906676
 20
-1986.752258733394
 30
0.0
 11
-579.9991724906676
 21
-2026.752258733394
 31
0.0
  0
LINE
  5
88F
330
547
100
AcDbEntity
  8
Visible (ISO)
100
AcDbLine
 10
580.0000000000053
 20
-1976.849999999998
 30
0.0
 11
580.0000000000053
 21
-1986.849999999998
 31
0.0
  0
LINE
  5
890
330
547
100
AcDbEntity
  8
Visible (ISO)
100
AcDbLine
 10
580.0000000000053
 20
-1976.849999999998
 30
0.0
 11
572.0000000000072
 21
-1976.849999999998
 31
0.0
  0
LINE
  5
891
330
547
100
AcDbEntity
  8
Visible (ISO)
100
AcDbLine
 10
572.0000000000072
 20
-1986.849999999998
 30
0.0
 11
572.0000000000072
 21
-1976.849999999998
 31
0.0
  0
LINE
  5
892
330
547
100
AcDbEntity
  8
Visible (ISO)
100
AcDbLine
 10
580.0000000000053
 20
-2026.849999999999
 30
0.0
 11
580.0000000000053
 21
-1986.849999999998
 31
0.0
  0
LINE
  5
893
330
547
100
AcDbEntity
  8
Visible (ISO)
100
AcDbLine
 10
572.0000000000072
 20
-1986.849999999998
 30
0.0
 11
572.0000000000072
 21
-2026.849999999999
 31
0.0
  0
LINE
  5
894
330
547
100
AcDbEntity
  8
Visible (ISO)
100
AcDbLine
 10
11.99999999999818
 20
-1305.511535729828
 30
0.0
 11
11.99999999999818
 21
-1307.525054803701
 31
0.0
  0
LINE
  5
895
330
547
100
AcDbEntity
  8
Visible (ISO)
100
AcDbLine
 10
3.999999999998181
 20
-1305.511535729828
 30
0.0
 11
11.99999999999818
 21
-1305.511535729828
 31
0.0
  0
LINE
  5
896
330
547
100
AcDbEntity
  8
Visible (ISO)
100
AcDbLine
 10
3.999999999998181
 20
-1331.596987810125
 30
0.0
 11
3.999999999998181
 21
-1339.07426918517
 31
0.0
  0
LINE
  5
897
330
547
100
AcDbEntity
  8
Visible (ISO)
100
AcDbLine
 10
3.999999999998181
 20
-1362.108388092849
 30
0.0
 11
3.999999999998181
 21
-1363.542911514634
 31
0.0
  0
LINE
  5
898
330
547
100
AcDbEntity
  8
Visible (ISO)
100
AcDbLine
 10
3.999999999998181
 20
-1323.067882883965
 30
0.0
 11
3.999999999998181
 21
-1331.596987810126
 31
0.0
  0
LINE
  5
899
330
547
100
AcDbEntity
  8
Visible (ISO)
100
AcDbLine
 10
10.0457323583596
 20
-1363.542911514633
 30
0.0
 11
3.999999999998181
 21
-1363.542911514633
 31
0.0
  0
LINE
  5
89A
330
547
100
AcDbEntity
  8
Visible (ISO)
100
AcDbLine
 10
11.99999999999818
 20
-1338.021593735816
 30
0.0
 11
11.99999999999818
 21
-1331.596987810126
 31
0.0
  0
LINE
  5
89B
330
547
100
AcDbEntity
  8
Visible (ISO)
100
AcDbLine
 10
11.99999999999818
 20
-1331.596987810125
 30
0.0
 11
3.999999999998181
 21
-1331.596987810125
 31
0.0
  0
LINE
  5
89C
330
547
100
AcDbEntity
  8
Visible (ISO)
100
AcDbLine
 10
11.99999999999818
 20
-1331.596987810125
 30
0.0
 11
11.99999999999818
 21
-1307.525054803701
 31
0.0
  0
LINE
  5
89D
330
547
100
AcDbEntity
  8
Visible (ISO)
100
AcDbLine
 10
-4.000000000001818
 20
-1331.596987810125
 30
0.0
 11
-4.000000000001818
 21
-1323.067882883965
 31
0.0
  0
LINE
  5
89E
330
547
100
AcDbEntity
  8
Visible (ISO)
100
AcDbLine
 10
-4.000000000001818
 20
-1363.542911514633
 30
0.0
 11
-4.000000000001818
 21
-1362.108388092848
 31
0.0
  0
LINE
  5
89F
330
547
100
AcDbEntity
  8
Visible (ISO)
100
AcDbLine
 10
-4.000000000001818
 20
-1339.074269185169
 30
0.0
 11
-4.000000000001818
 21
-1331.596987810125
 31
0.0
  0
LINE
  5
8A0
330
547
100
AcDbEntity
  8
Visible (ISO)
100
AcDbLine
 10
-12.0
 20
-1307.5250548037
 30
0.0
 11
-12.0
 21
-1331.596987810125
 31
0.0
  0
LINE
  5
8A1
330
547
100
AcDbEntity
  8
Visible (ISO)
100
AcDbLine
 10
-12.0
 20
-1331.596987810125
 30
0.0
 11
-4.000000000001818
 21
-1331.596987810125
 31
0.0
  0
LINE
  5
8A2
330
547
100
AcDbEntity
  8
Visible (ISO)
100
AcDbLine
 10
-12.0
 20
-1331.596987810125
 30
0.0
 11
-12.0
 21
-1338.021593735816
 31
0.0
  0
LINE
  5
8A3
330
547
100
AcDbEntity
  8
Visible (ISO)
100
AcDbLine
 10
-10.04573235836233
 20
-1363.542911514633
 30
0.0
 11
-4.000000000001818
 21
-1363.542911514633
 31
0.0
  0
LINE
  5
8A4
330
547
100
AcDbEntity
  8
Visible (ISO)
100
AcDbLine
 10
-12.0
 20
-1307.525054803701
 30
0.0
 11
-12.0
 21
-1305.511535729828
 31
0.0
  0
LINE
  5
8A5
330
547
100
AcDbEntity
  8
Visible (ISO)
100
AcDbLine
 10
-12.0
 20
-1305.511535729827
 30
0.0
 11
-4.000000000001818
 21
-1305.511535729827
 31
0.0
  0
LINE
  5
8A6
330
547
100
AcDbEntity
  8
Visible (ISO)
100
AcDbLine
 10
571.6788682716367
 20
-1984.898401167821
 30
0.0
 11
571.6788682716367
 21
-1998.902865345553
 31
0.0
  0
LINE
  5
8A7
330
547
100
AcDbEntity
  8
Visible (ISO)
100
AcDbLine
 10
567.6788682716369
 20
-1998.902865345553
 30
0.0
 11
567.6788682716369
 21
-1984.89840116782
 31
0.0
  0
LINE
  5
8A8
330
547
100
AcDbEntity
  8
Visible (ISO)
100
AcDbLine
 10
571.6788682716367
 20
-1984.89840116782
 30
0.0
 11
571.6788682716367
 21
-1969.853443038805
 31
0.0
  0
LINE
  5
8A9
330
547
100
AcDbEntity
  8
Visible (ISO)
100
AcDbLine
 10
567.6788682716369
 20
-1969.853443038805
 30
0.0
 11
571.6788682716367
 21
-1969.853443038805
 31
0.0
  0
LINE
  5
8AA
330
547
100
AcDbEntity
  8
Visible (ISO)
100
AcDbLine
 10
567.6788682716369
 20
-1984.89840116782
 30
0.0
 11
567.6788682716369
 21
-1969.853443038805
 31
0.0
  0
LINE
  5
8AB
330
547
100
AcDbEntity
  8
Visible (ISO)
100
AcDbLine
 10
571.6788682716367
 20
-1998.902865345553
 30
0.0
 11
571.6788682716367
 21
-2018.86906766087
 31
0.0
  0
LINE
  5
8AC
330
547
100
AcDbEntity
  8
Visible (ISO)
100
AcDbLine
 10
571.6788682716367
 20
-2018.86906766087
 30
0.0
 11
571.6788682716367
 21
-2022.851084409264
 31
0.0
  0
LINE
  5
8AD
330
547
100
AcDbEntity
  8
Visible (ISO)
100
AcDbLine
 10
567.6788682716369
 20
-2022.851084409264
 30
0.0
 11
567.6788682716369
 21
-2018.86906766087
 31
0.0
  0
LINE
  5
8AE
330
547
100
AcDbEntity
  8
Visible (ISO)
100
AcDbLine
 10
567.6788682716369
 20
-2018.86906766087
 30
0.0
 11
567.6788682716369
 21
-1998.902865345553
 31
0.0
  0
ELLIPSE
  5
8AF
330
547
100
AcDbEntity
  8
Visible (ISO)
100
AcDbEllipse
 10
569.6788682716377
 20
-1972.778066993575
 30
0.0
 11
9.986160135506555
 21
11.19270323684225
 31
0.0
210
0.0
220
0.0
230
1.0
 40
0.6621092760253319
 41
0.6389792583964323
 42
0.8437104566840423
  0
LINE
  5
8B0
330
547
100
AcDbEntity
  8
Visible (ISO)
100
AcDbLine
 10
570.7799104638079
 20
-1960.398461324703
 30
0.0
 11
571.6788682716367
 21
-1969.853443038805
 31
0.0
  0
ELLIPSE
  5
8B1
330
547
100
AcDbEntity
  8
Visible (ISO)
100
AcDbEllipse
 10
569.6788682716377
 20
-1972.778066993575
 30
0.0
 11
9.986160135506576
 21
11.19270323684227
 31
0.0
210
0.0
220
0.0
230
0.9999999999999998
 40
0.6621092760253318
 41
5.153872013688256
 42
6.922164565576018
  0
ELLIPSE
  5
8B2
330
547
100
AcDbEntity
  8
Visible (ISO)
100
AcDbEllipse
 10
569.6788682716377
 20
-1972.778066993575
 30
0.0
 11
-9.986160135506565
 21
-11.19270323684226
 31
0.0
210
0.0
220
0.0
230
1.0
 40
0.6621092760253317
 41
4.241759653423997
 42
6.176227902471452
  0
LINE
  5
8B3
330
547
100
AcDbEntity
  8
Visible (ISO)
100
AcDbLine
 10
567.6019512379916
 20
-1961.80966532127
 30
0.0
 11
567.6788682716369
 21
-1969.853443038805
 31
0.0
  0
ELLIPSE
  5
8B4
330
547
100
AcDbEntity
  8
Visible (ISO)
100
AcDbEllipse
 10
569.6788682716377
 20
-1972.778066993575
 30
0.0
 11
9.986160135506551
 21
11.19270323684224
 31
0.0
210
0.0
220
0.0
230
0.9999999999999998
 40
0.6621092760253317
 41
0.8437104566840432
 42
1.100166999834214
  0
SPLINE
  5
8B5
330
547
100
AcDbEntity
  8
Visible (ISO)
100
AcDbSpline
210
0.0
220
0.0
230
1.0
 70
     8
 71
     3
 72
     8
 73
     4
 74
     0
 42
0.0000000001
 43
0.0000000001
 40
0.0
 40
0.0
 40
0.0
 40
0.0
 40
0.4171247494335212
 40
0.4171247494335212
 40
0.4171247494335212
 40
0.4171247494335212
 10
580.6460008188377
 20
-1973.973610878835
 30
0.0
 10
580.2171585322102
 20
-1974.920565983805
 30
0.0
 10
579.7869726516346
 20
-1975.878121904115
 30
0.0
 10
579.3578736207227
 20
-1976.849999999998
 30
0.0
  0
SPLINE
  5
8B6
330
547
100
AcDbEntity
  8
Visible (ISO)
100
AcDbSpline
210
0.0
220
0.0
230
1.0
 70
     8
 71
     3
 72
     8
 73
     4
 74
     0
 42
0.0000000001
 43
0.0000000001
 40
3.541222831565712
 40
3.541222831565712
 40
3.541222831565712
 40
3.541222831565712
 40
3.747279616837828
 40
3.747279616837828
 40
3.747279616837828
 40
3.747279616837828
 10
571.7310540685921
 20
-2002.849999999999
 30
0.0
 10
571.6965453550264
 20
-2003.534849602879
 30
0.0
 10
571.6788682716367
 20
-2004.222473795054
 30
0.0
 10
571.6788682716367
 20
-2004.909068768776
 30
0.0
  0
SPLINE
  5
8B7
330
547
100
AcDbEntity
  8
Visible (ISO)
100
AcDbSpline
210
0.0
220
0.0
230
1.0
 70
     8
 71
     3
 72
     8
 73
     4
 74
     0
 42
0.0000000001
 43
0.0000000001
 40
1.91271844967887
 40
1.91271844967887
 40
1.91271844967887
 40
1.91271844967887
 40
2.49177055887576
 40
2.49177055887576
 40
2.49177055887576
 40
2.49177055887576
 10
562.0702655499326
 20
-1987.349999999999
 30
0.0
 10
561.0720017714375
 20
-1985.883849852105
 30
0.0
 10
560.0197585784581
 20
-1984.509006322577
 30
0.0
 10
558.9586452438006
 20
-1983.200962420397
 30
0.0
  0
ELLIPSE
  5
8B8
330
547
100
AcDbEntity
  8
Visible (ISO)
100
AcDbEllipse
 10
47.72809375965788
 20
-1382.675224418816
 30
0.0
 11
9.986160135506407
 21
11.19270323684241
 31
0.0
210
0.0
220
0.0
230
1.0
 40
0.6621092760253317
 41
0.0
 42
3.141592653589713
  0
LINE
  5
8B9
330
547
100
AcDbEntity
  8
Visible (ISO)
100
AcDbLine
 10
571.6788682716367
 20
-2022.851084409264
 30
0.0
 11
567.6788682716369
 21
-2022.851084409264
 31
0.0
  0
LINE
  5
8BA
330
547
100
AcDbEntity
  8
Visible (ISO)
100
AcDbLine
 10
-571.6780407622991
 20
-2022.75334314266
 30
0.0
 11
-571.6780407622991
 21
-2018.771326394266
 31
0.0
  0
LINE
  5
8BB
330
547
100
AcDbEntity
  8
Visible (ISO)
100
AcDbLine
 10
-567.6780407622973
 20
-2018.771326394266
 30
0.0
 11
-567.6780407622973
 21
-2022.75334314266
 31
0.0
  0
LINE
  5
8BC
330
547
100
AcDbEntity
  8
Visible (ISO)
100
AcDbLine
 10
-571.6780407622991
 20
-2018.771326394266
 30
0.0
 11
-571.6780407622991
 21
-1998.805124078949
 31
0.0
  0
LINE
  5
8BD
330
547
100
AcDbEntity
  8
Visible (ISO)
100
AcDbLine
 10
-571.6780407622991
 20
-1998.805124078949
 30
0.0
 11
-571.6780407622991
 21
-1984.800659901216
 31
0.0
  0
LINE
  5
8BE
330
547
100
AcDbEntity
  8
Visible (ISO)
100
AcDbLine
 10
-571.6780407622991
 20
-1984.800659901215
 30
0.0
 11
-571.6780407622991
 21
-1969.7557017722
 31
0.0
  0
LINE
  5
8BF
330
547
100
AcDbEntity
  8
Visible (ISO)
100
AcDbLine
 10
-567.6780407623
 20
-1984.800659901216
 30
0.0
 11
-567.6780407623
 21
-1998.805124078949
 31
0.0
  0
LINE
  5
8C0
330
547
100
AcDbEntity
  8
Visible (ISO)
100
AcDbLine
 10
-567.6780407622973
 20
-1984.800659901215
 30
0.0
 11
-567.6780407622973
 21
-1969.7557017722
 31
0.0
  0
LINE
  5
8C1
330
547
100
AcDbEntity
  8
Visible (ISO)
100
AcDbLine
 10
-571.6780407622991
 20
-1969.7557017722
 30
0.0
 11
-567.6780407622973
 21
-1969.7557017722
 31
0.0
  0
LINE
  5
8C2
330
547
100
AcDbEntity
  8
Visible (ISO)
100
AcDbLine
 10
-567.6780407622973
 20
-1998.805124078949
 30
0.0
 11
-567.6780407622973
 21
-2018.771326394265
 31
0.0
  0
LINE
  5
8C3
330
547
100
AcDbEntity
  8
Visible (ISO)
100
AcDbLine
 10
-570.7790829544701
 20
-1960.300720058099
 30
0.0
 11
-571.6780407622991
 21
-1969.7557017722
 31
0.0
  0
ELLIPSE
  5
8C4
330
547
100
AcDbEntity
  8
Visible (ISO)
100
AcDbEllipse
 10
-569.6780407622991
 20
-1972.680325726971
 30
0.0
 11
9.986160135506061
 21
-11.1927032368432
 31
0.0
210
0.0
220
0.0
230
0.9999999999999998
 40
0.6621092760253317
 41
2.297882196905961
 42
2.502613395193606
  0
ELLIPSE
  5
8C5
330
547
100
AcDbEntity
  8
Visible (ISO)
100
AcDbEllipse
 10
-569.6780407622991
 20
-1972.68032572697
 30
0.0
 11
-9.986160135506583
 21
11.19270323684225
 31
0.0
210
0.0
220
0.0
230
1.0
 40
0.6621092760253317
 41
5.644206048783151
 42
7.412498600670923
  0
ELLIPSE
  5
8C6
330
547
100
AcDbEntity
  8
Visible (ISO)
100
AcDbEllipse
 10
-569.6780407622991
 20
-1972.68032572697
 30
0.0
 11
9.986160135505627
 21
-11.19270323684272
 31
0.0
210
0.0
220
0.0
230
1.0
 40
0.6621092760253317
 41
2.209226315038458
 42
2.297882196905876
  0
LINE
  5
8C7
330
547
100
AcDbEntity
  8
Visible (ISO)
100
AcDbLine
 10
-568.5769985701263
 20
-1961.194585958055
 30
0.0
 11
-567.6780407622973
 21
-1969.7557017722
 31
0.0
  0
ELLIPSE
  5
8C8
330
547
100
AcDbEntity
  8
Visible (ISO)
100
AcDbEllipse
 10
-569.6780407622991
 20
-1972.68032572697
 30
0.0
 11
9.986160135505199
 21
-11.19270323684225
 31
0.0
210
0.0
220
0.0
230
1.0
 40
0.6621092760253318
 41
2.12057043317103
 42
2.209226315038459
  0
ELLIPSE
  5
8C9
330
547
100
AcDbEntity
  8
Visible (ISO)
100
AcDbEllipse
 10
-569.6780407622991
 20
-1972.68032572697
 30
0.0
 11
9.986160135505819
 21
-11.19270323684294
 31
0.0
210
0.0
220
0.0
230
1.0
 40
0.6621092760253317
 41
0.1280923598667139
 42
2.12057043317095
  0
SPLINE
  5
8CA
330
547
100
AcDbEntity
  8
Visible (ISO)
100
AcDbSpline
210
0.0
220
0.0
230
1.0
 70
     8
 71
     3
 72
     8
 73
     4
 74
     0
 42
0.0000000001
 43
0.0000000001
 40
0.0
 40
0.0
 40
0.0
 40
0.0
 40
0.2058794990949373
 40
0.2058794990949373
 40
0.2058794990949373
 40
0.2058794990949373
 10
-571.6780407622991
 20
-2004.811327502172
 30
0.0
 10
-571.6780407622991
 20
-2004.125323257836
 30
0.0
 10
-571.6965574915175
 20
-2003.437820176867
 30
0.0
 10
-571.7320761974759
 20
-2002.752258733394
 30
0.0
  0
SPLINE
  5
8CB
330
547
100
AcDbEntity
  8
Visible (ISO)
100
AcDbSpline
210
0.0
220
0.0
230
1.0
 70
     8
 71
     3
 72
     8
 73
     4
 74
     0
 42
0.0000000001
 43
0.0000000001
 40
3.328914717387772
 40
3.328914717387772
 40
3.328914717387772
 40
3.328914717387772
 40
3.745966844532123
 40
3.745966844532123
 40
3.745966844532123
 40
3.745966844532123
 10
-579.3604081188759
 20
-1976.752258733393
 30
0.0
 10
-579.7877058949998
 20
-1975.780453479247
 30
0.0
 10
-580.2164056852096
 20
-1974.822659850341
 30
0.0
 10
-580.6451733094982
 20
-1973.875869612231
 30
0.0
  0
SPLINE
  5
8CC
330
547
100
AcDbEntity
  8
Visible (ISO)
100
AcDbSpline
210
0.0
220
0.0
230
1.0
 70
     8
 71
     3
 72
     8
 73
     4
 74
     0
 42
0.0000000001
 43
0.0000000001
 40
0.0
 40
0.0
 40
0.0
 40
0.0
 40
0.5767222076338495
 40
0.5767222076338495
 40
0.5767222076338495
 40
0.5767222076338495
 10
-558.8270212202296
 20
-1982.93670797353
 30
0.0
 10
-559.8685602721998
 20
-1984.306276306247
 30
0.0
 10
-560.906423790846
 20
-1985.739514515338
 30
0.0
 10
-561.8895723172881
 20
-1987.252258733394
 30
0.0
  0
ELLIPSE
  5
8CD
330
547
100
AcDbEntity
  8
Visible (ISO)
100
AcDbEllipse
 10
-47.72809375966061
 20
-1382.675224418816
 30
0.0
 11
9.986160135506716
 21
-11.19270323684213
 31
0.0
210
0.0
220
0.0
230
1.0
 40
0.6621092760253318
 41
0.0
 42
3.141592668490908
  0
LINE
  5
8CE
330
547
100
AcDbEntity
  8
Visible (ISO)
100
AcDbLine
 10
-567.6780407623
 20
-2022.75334314266
 30
0.0
 11
-571.6780407622991
 21
-2022.75334314266
 31
0.0
  0
ELLIPSE
  5
8CF
330
547
100
AcDbEntity
  8
Visible (ISO)
100
AcDbEllipse
 10
18.46002965715523
 20
-1356.562178374514
 30
0.0
 11
5.325952072270096
 21
5.969441726315941
 31
0.0
210
0.0
220
0.0
230
1.0
 40
0.6621092760253325
 41
0.0
 42
3.141592653589736
  0
ELLIPSE
  5
8D0
330
547
100
AcDbEntity
  8
Visible (ISO)
100
AcDbEllipse
 10
15.10487223633026
 20
-1353.568697838561
 30
0.0
 11
7.323184099371506
 21
8.207982373684316
 31
0.0
210
0.0
220
0.0
230
1.0
 40
0.6621092760253321
 41
5.526728922511181
 42
10.18123434543769
  0
ELLIPSE
  5
8D1
330
547
100
AcDbEntity
  8
Visible (ISO)
100
AcDbEllipse
 10
15.10487223633026
 20
-1353.568697838561
 30
0.0
 11
4.965607475476471
 21
5.565559745636391
 31
0.0
210
0.0
220
0.0
230
1.0
 40
0.6621092760253321
 41
0.0
 42
3.141592653589771
  0
ELLIPSE
  5
8D2
330
547
100
AcDbEntity
  8
Visible (ISO)
100
AcDbEllipse
 10
17.77389996459715
 20
-1355.950011604912
 30
0.0
 11
-4.965607475476126
 21
-5.565559745636695
 31
0.0
210
0.0
220
0.0
230
1.0
 40
0.6621092760253321
 41
3.541944784014035
 42
5.882833176754725
  0
LINE
  5
8D3
330
547
100
AcDbEntity
  8
Visible (ISO)
100
AcDbLine
 10
23.78598172942566
 20
-1350.592736648198
 30
0.0
 11
46.78521803128386
 21
-1371.112717554037
 31
0.0
  0
LINE
  5
8D4
330
547
100
AcDbEntity
  8
Visible (ISO)
100
AcDbLine
 10
13.13407758488665
 20
-1362.531620100829
 30
0.0
 11
36.13331388674396
 21
-1383.051601006669
 31
0.0
  0
LINE
  5
8D5
330
547
100
AcDbEntity
  8
Visible (ISO)
100
AcDbLine
 10
21.9806460936361
 20
-1344.961534835408
 30
0.0
 11
22.42805633570424
 21
-1345.360715464877
 31
0.0
  0
LINE
  5
8D6
330
547
100
AcDbEntity
  8
Visible (ISO)
100
AcDbLine
 10
7.334277894893602
 20
-1361.377499582777
 30
0.0
 11
7.781688136959018
 21
-1361.776680212246
 31
0.0
  0
LINE
  5
8D7
330
547
100
AcDbEntity
  8
Visible (ISO)
100
AcDbLine
 10
20.07047971180782
 20
-1348.003138092925
 30
0.0
 11
21.99652686936587
 21
-1349.721562582248
 31
0.0
  0
LINE
  5
8D8
330
547
100
AcDbEntity
  8
Visible (ISO)
100
AcDbLine
 10
10.13926476085544
 20
-1359.134257584197
 30
0.0
 11
12.06531191841441
 21
-1360.85268207352
 31
0.0
  0
LINE
  5
8D9
330
547
100
AcDbEntity
  8
Visible (ISO)
100
AcDbLine
 10
20.91064104844372
 20
-1349.543169056935
 30
0.0
 11
21.82439801655346
 21
-1349.690403568787
 31
0.0
  0
LINE
  5
8DA
330
547
100
AcDbEntity
  8
Visible (ISO)
100
AcDbLine
 10
11.76474872938434
 20
-1359.794082037928
 30
0.0
 11
12.01480585889294
 21
-1360.685205615348
 31
0.0
  0
SPLINE
  5
8DB
330
547
100
AcDbEntity
  8
Visible (ISO)
100
AcDbSpline
210
0.0
220
0.0
230
1.0
 70
    12
 71
     2
 72
     6
 73
     3
 74
     0
 42
0.0000000001
 43
0.0000000001
 40
0.0
 40
0.0
 40
0.0
 40
0.7028516625302875
 40
0.7028516625302875
 40
0.7028516625302875
 10
20.06067930058816
 20
-1339.542794987312
 30
0.0
 41
1.0
 10
16.79565877626101
 20
-1338.607493210165
 30
0.0
 41
1.037954849302054
 10
14.48711271766569
 20
-1338.260591161489
 30
0.0
 41
1.0
  0
SPLINE
  5
8DC
330
547
100
AcDbEntity
  8
Visible (ISO)
100
AcDbSpline
210
0.0
220
0.0
230
1.0
 70
    12
 71
     2
 72
     6
 73
     3
 74
     0
 42
0.0000000001
 43
0.0000000001
 40
0.0
 40
0.0
 40
0.0
 40
0.7028516625302878
 40
0.7028516625302878
 40
0.7028516625302878
 10
10.11222842992538
 20
-1338.047854925224
 30
0.0
 41
1.0
 10
6.847207905600043
 20
-1340.077784105742
 30
0.0
 41
1.037954849302045
 10
4.538661847003822
 20
-1342.298847394494
 30
0.0
 41
1.0
  0
SPLINE
  5
8DD
330
547
100
AcDbEntity
  8
Visible (ISO)
100
AcDbSpline
210
0.0
220
0.0
230
1.0
 70
    12
 71
     2
 72
     6
 73
     3
 74
     0
 42
0.0000000001
 43
0.0000000001
 40
0.7028516625302875
 40
0.7028516625302875
 40
0.7028516625302875
 40
1.405703325060574
 40
1.405703325060574
 40
1.405703325060574
 10
14.48711271766569
 20
-1338.260591161489
 30
0.0
 41
1.0
 10
12.17856665906947
 20
-1337.913689112814
 30
0.0
 41
1.03795484930206
 10
10.11222842992538
 20
-1338.047854925224
 30
0.0
 41
1.0
  0
SPLINE
  5
8DE
330
547
100
AcDbEntity
  8
Visible (ISO)
100
AcDbSpline
210
0.0
220
0.0
230
1.0
 70
    12
 71
     2
 72
     6
 73
     3
 74
     0
 42
0.0000000001
 43
0.0000000001
 40
1.30481421494258
 40
1.30481421494258
 40
1.30481421494258
 40
1.405703325060575
 40
1.405703325060575
 40
1.405703325060575
 10
-0.000000000001819
 20
-1357.676868024657
 30
0.0
 41
1.009332192326942
 10
0.0749651811484
 20
-1358.167063547012
 30
0.0
 41
1.005448135324829
 10
0.1637775592662365
 20
-1358.685700043506
 30
0.0
 41
1.0
  0
SPLINE
  5
8DF
330
547
100
AcDbEntity
  8
Visible (ISO)
100
AcDbSpline
210
0.0
220
0.0
230
1.0
 70
    12
 71
     2
 72
     6
 73
     3
 74
     0
 42
0.0000000001
 43
0.0000000001
 40
0.0
 40
0.0
 40
0.0
 40
0.1008891101180072
 40
0.1008891101180072
 40
0.1008891101180072
 10
0.1637775592662365
 20
-1347.619307453321
 30
0.0
 41
1.0
 10
0.0749651811484
 20
-1347.97946666133
 30
0.0
 41
1.005448135324828
 10
-0.000000000001819
 20
-1348.33589390846
 30
0.0
 41
1.009332192326939
  0
SPLINE
  5
8E0
330
547
100
AcDbEntity
  8
Visible (ISO)
100
AcDbSpline
210
0.0
220
0.0
230
1.0
 70
    12
 71
     2
 72
     6
 73
     3
 74
     0
 42
0.0000000001
 43
0.0000000001
 40
0.7028516625302878
 40
0.7028516625302878
 40
0.7028516625302878
 40
1.405703325060574
 40
1.405703325060574
 40
1.405703325060574
 10
4.538661847003822
 20
-1342.298847394494
 30
0.0
 41
1.0
 10
2.230115788407601
 20
-1344.519910683246
 30
0.0
 41
1.037954849302045
 10
0.1637775592662365
 20
-1347.619307453321
 30
0.0
 41
1.0
  0
LINE
  5
8E1
330
547
100
AcDbEntity
  8
Visible (ISO)
100
AcDbLine
 10
4.709011123604796
 20
-1362.740969737189
 30
0.0
 11
0.1637775592662365
 21
-1358.685700043505
 31
0.0
  0
LINE
  5
8E2
330
547
100
AcDbEntity
  8
Visible (ISO)
100
AcDbLine
 10
4.709011123604796
 20
-1351.674577147004
 30
0.0
 11
4.709011123604796
 21
-1362.740969737189
 31
0.0
  0
LINE
  5
8E3
330
547
100
AcDbEntity
  8
Visible (ISO)
100
AcDbLine
 10
4.709011123604796
 20
-1351.674577147004
 30
0.0
 11
0.1637775592662365
 21
-1347.619307453321
 31
0.0
  0
LINE
  5
8E4
330
547
100
AcDbEntity
  8
Visible (ISO)
100
AcDbLine
 10
4.709011123604796
 20
-1362.740969737189
 30
0.0
 11
14.65746199426394
 21
-1364.235909799276
 31
0.0
  0
LINE
  5
8E5
330
547
100
AcDbEntity
  8
Visible (ISO)
100
AcDbLine
 10
14.65746199426485
 20
-1364.235909799276
 30
0.0
 11
14.84358107015578
 21
-1364.056843739381
 31
0.0
  0
LINE
  5
8E6
330
547
100
AcDbEntity
  8
Visible (ISO)
100
AcDbLine
 10
24.60591286492399
 20
-1351.324281427499
 30
0.0
 11
24.60591286492399
 21
-1343.598064680994
 31
0.0
  0
LINE
  5
8E7
330
547
100
AcDbEntity
  8
Visible (ISO)
100
AcDbLine
 10
24.60591286492399
 20
-1343.598064680994
 30
0.0
 11
14.65746199426394
 21
-1342.103124618906
 31
0.0
  0
LINE
  5
8E8
330
547
100
AcDbEntity
  8
Visible (ISO)
100
AcDbLine
 10
14.65746199426485
 20
-1342.103124618906
 30
0.0
 11
4.709011123604796
 21
-1351.674577147004
 31
0.0
  0
ELLIPSE
  5
8E9
330
547
100
AcDbEntity
  8
Visible (ISO)
100
AcDbEllipse
 10
14.65746199426485
 20
-1353.169517209092
 30
0.0
 11
7.323184099371432
 21
8.207982373684387
 31
0.0
210
0.0
220
0.0
230
1.0
 40
0.6621092760253321
 41
0.0000000000000094
 42
3.141592653589801
  0
LINE
  5
8EA
330
547
100
AcDbEntity
  8
Visible (ISO)
100
AcDbLine
 10
24.60591286492399
 20
-1343.598064680994
 30
0.0
 11
20.06067930058816
 21
-1339.542794987311
 31
0.0
  0
LINE
  5
8EB
330
547
100
AcDbEntity
  8
Visible (ISO)
100
AcDbLine
 10
14.65746199426485
 20
-1342.103124618906
 30
0.0
 11
10.11222842992538
 21
-1338.047854925224
 31
0.0
  0
ELLIPSE
  5
8EC
330
547
100
AcDbEntity
  8
Visible (ISO)
100
AcDbEllipse
 10
-18.46002965715979
 20
-1356.562178374513
 30
0.0
 11
5.325952072270148
 21
-5.969441726315894
 31
0.0
210
0.0
220
0.0
230
1.0
 40
0.6621092760253319
 41
0.0000000000000267
 42
3.141592653589818
  0
ELLIPSE
  5
8ED
330
547
100
AcDbEntity
  8
Visible (ISO)
100
AcDbEllipse
 10
-15.10487223633481
 20
-1353.568697838561
 30
0.0
 11
7.323184099371498
 21
-8.207982373684311
 31
0.0
210
0.0
220
0.0
230
1.0
 40
0.6621092760253321
 41
5.526728922511153
 42
10.18123434543772
  0
ELLIPSE
  5
8EE
330
547
100
AcDbEntity
  8
Visible (ISO)
100
AcDbEllipse
 10
-15.10487223633481
 20
-1353.568697838561
 30
0.0
 11
4.965607475476462
 21
-5.565559745636393
 31
0.0
210
0.0
220
0.0
230
0.9999999999999998
 40
0.6621092760253321
 41
0.0000000000000262
 42
3.141592653589818
  0
ELLIPSE
  5
8EF
330
547
100
AcDbEntity
  8
Visible (ISO)
100
AcDbEllipse
 10
-17.77389996459987
 20
-1355.950011604911
 30
0.0
 11
-4.965607475476891
 21
5.565559745636011
 31
0.0
210
0.0
220
0.0
230
1.0
 40
0.6621092760253319
 41
3.541944784013978
 42
5.882833176754741
  0
LINE
  5
8F0
330
547
100
AcDbEntity
  8
Visible (ISO)
100
AcDbLine
 10
-13.13407758488756
 20
-1362.531620100829
 30
0.0
 11
-36.13331388674669
 21
-1383.051601006668
 31
0.0
  0
LINE
  5
8F1
330
547
100
AcDbEntity
  8
Visible (ISO)
100
AcDbLine
 10
-23.78598172942929
 20
-1350.592736648198
 30
0.0
 11
-46.78521803128842
 21
-1371.112717554037
 31
0.0
  0
LINE
  5
8F2
330
547
100
AcDbEntity
  8
Visible (ISO)
100
AcDbLine
 10
-7.334277894895421
 20
-1361.377499582776
 30
0.0
 11
-7.781688136962657
 21
-1361.776680212243
 31
0.0
  0
LINE
  5
8F3
330
547
100
AcDbEntity
  8
Visible (ISO)
100
AcDbLine
 10
-21.98064609364065
 20
-1344.961534835407
 30
0.0
 11
-22.42805633570606
 21
-1345.360715464876
 31
0.0
  0
LINE
  5
8F4
330
547
100
AcDbEntity
  8
Visible (ISO)
100
AcDbLine
 10
-10.13926476085817
 20
-1359.134257584197
 30
0.0
 11
-12.06531191841532
 21
-1360.85268207352
 31
0.0
  0
LINE
  5
8F5
330
547
100
AcDbEntity
  8
Visible (ISO)
100
AcDbLine
 10
-20.07047971181146
 20
-1348.003138092924
 30
0.0
 11
-21.99652686936952
 21
-1349.721562582247
 31
0.0
  0
LINE
  5
8F6
330
547
100
AcDbEntity
  8
Visible (ISO)
100
AcDbLine
 10
-11.76474872938706
 20
-1359.794082037927
 30
0.0
 11
-12.01480585889567
 21
-1360.685205615346
 31
0.0
  0
LINE
  5
8F7
330
547
100
AcDbEntity
  8
Visible (ISO)
100
AcDbLine
 10
-20.91064104844736
 20
-1349.543169056934
 30
0.0
 11
-21.82439801655801
 21
-1349.690403568787
 31
0.0
  0
SPLINE
  5
8F8
330
547
100
AcDbEntity
  8
Visible (ISO)
100
AcDbSpline
210
0.0
220
0.0
230
1.0
 70
    12
 71
     2
 72
     6
 73
     3
 74
     0
 42
0.0000000001
 43
0.0000000001
 40
0.702851662530288
 40
0.702851662530288
 40
0.702851662530288
 40
1.405703325060575
 40
1.405703325060575
 40
1.405703325060575
 10
-14.48711271766751
 20
-1338.260591161488
 30
0.0
 41
1.0
 10
-16.79565877626282
 20
-1338.607493210163
 30
0.0
 41
1.037954849302044
 10
-20.06067930059089
 20
-1339.542794987311
 30
0.0
 41
1.0
  0
SPLINE
  5
8F9
330
547
100
AcDbEntity
  8
Visible (ISO)
100
AcDbSpline
210
0.0
220
0.0
230
1.0
 70
    12
 71
     2
 72
     6
 73
     3
 74
     0
 42
0.0000000001
 43
0.0000000001
 40
0.7028516625302889
 40
0.7028516625302889
 40
0.7028516625302889
 40
1.405703325060577
 40
1.405703325060577
 40
1.405703325060577
 10
-4.53866184700746
 20
-1342.298847394493
 30
0.0
 41
1.0
 10
-6.847207905601862
 20
-1340.077784105742
 30
0.0
 41
1.03795484930205
 10
-10.11222842992902
 20
-1338.047854925223
 30
0.0
 41
1.0
  0
SPLINE
  5
8FA
330
547
100
AcDbEntity
  8
Visible (ISO)
100
AcDbSpline
210
0.0
220
0.0
230
1.0
 70
    12
 71
     2
 72
     6
 73
     3
 74
     0
 42
0.0000000001
 43
0.0000000001
 40
0.0
 40
0.0
 40
0.0
 40
0.702851662530288
 40
0.702851662530288
 40
0.702851662530288
 10
-10.11222842992902
 20
-1338.047854925223
 30
0.0
 41
1.0
 10
-12.17856665907129
 20
-1337.913689112814
 30
0.0
 41
1.037954849302045
 10
-14.48711271766751
 20
-1338.260591161488
 30
0.0
 41
1.0
  0
SPLINE
  5
8FB
330
547
100
AcDbEntity
  8
Visible (ISO)
100
AcDbSpline
210
0.0
220
0.0
230
1.0
 70
    12
 71
     2
 72
     6
 73
     3
 74
     0
 42
0.0000000001
 43
0.0000000001
 40
1.304814214942607
 40
1.304814214942607
 40
1.304814214942607
 40
1.405703325060575
 40
1.405703325060575
 40
1.405703325060575
 10
-0.000000000001819
 20
-1348.335893908459
 30
0.0
 41
1.00933219232694
 10
-0.074965181150219
 20
-1347.979466661329
 30
0.0
 41
1.005448135324828
 10
-0.1637775592698745
 20
-1347.619307453321
 30
0.0
 41
1.0
  0
SPLINE
  5
8FC
330
547
100
AcDbEntity
  8
Visible (ISO)
100
AcDbSpline
210
0.0
220
0.0
230
1.0
 70
    12
 71
     2
 72
     6
 73
     3
 74
     0
 42
0.0000000001
 43
0.0000000001
 40
0.0
 40
0.0
 40
0.0
 40
0.7028516625302889
 40
0.7028516625302889
 40
0.7028516625302889
 10
-0.1637775592698745
 20
-1347.619307453321
 30
0.0
 41
1.0
 10
-2.230115788411239
 20
-1344.519910683246
 30
0.0
 41
1.03795484930204
 10
-4.53866184700746
 20
-1342.298847394493
 30
0.0
 41
1.0
  0
SPLINE
  5
8FD
330
547
100
AcDbEntity
  8
Visible (ISO)
100
AcDbSpline
210
0.0
220
0.0
230
1.0
 70
    12
 71
     2
 72
     6
 73
     3
 74
     0
 42
0.0000000001
 43
0.0000000001
 40
0.0
 40
0.0
 40
0.0
 40
0.1008891101179719
 40
0.1008891101179719
 40
0.1008891101179719
 10
-0.1637775592698745
 20
-1358.685700043505
 30
0.0
 41
1.0
 10
-0.074965181150219
 20
-1358.167063547011
 30
0.0
 41
1.005448135324824
 10
-0.000000000001819
 20
-1357.676868024657
 30
0.0
 41
1.009332192326936
  0
LINE
  5
8FE
330
547
100
AcDbEntity
  8
Visible (ISO)
100
AcDbLine
 10
-4.709011123608433
 20
-1351.674577147003
 30
0.0
 11
-0.1637775592698745
 21
-1347.619307453321
 31
0.0
  0
LINE
  5
8FF
330
547
100
AcDbEntity
  8
Visible (ISO)
100
AcDbLine
 10
-4.709011123608433
 20
-1362.740969737189
 30
0.0
 11
-4.709011123608433
 21
-1351.674577147004
 31
0.0
  0
LINE
  5
900
330
547
100
AcDbEntity
  8
Visible (ISO)
100
AcDbLine
 10
-4.709011123608433
 20
-1362.740969737189
 30
0.0
 11
-0.1637775592698745
 21
-1358.685700043505
 31
0.0
  0
LINE
  5
901
330
547
100
AcDbEntity
  8
Visible (ISO)
100
AcDbLine
 10
-14.6574619942694
 20
-1342.103124618906
 30
0.0
 11
-10.11222842992902
 21
-1338.047854925224
 31
0.0
  0
LINE
  5
902
330
547
100
AcDbEntity
  8
Visible (ISO)
100
AcDbLine
 10
-4.709011123608433
 20
-1351.674577147003
 30
0.0
 11
-14.6574619942694
 21
-1342.103124618906
 31
0.0
  0
LINE
  5
903
330
547
100
AcDbEntity
  8
Visible (ISO)
100
AcDbLine
 10
-24.60591286492945
 20
-1343.598064680994
 30
0.0
 11
-20.06067930059089
 21
-1339.542794987311
 31
0.0
  0
LINE
  5
904
330
547
100
AcDbEntity
  8
Visible (ISO)
100
AcDbLine
 10
-14.6574619942694
 20
-1342.103124618906
 30
0.0
 11
-24.60591286492672
 21
-1343.598064680994
 31
0.0
  0
LINE
  5
905
330
547
100
AcDbEntity
  8
Visible (ISO)
100
AcDbLine
 10
-24.60591286492945
 20
-1343.598064680994
 30
0.0
 11
-24.60591286492945
 21
-1351.324281427499
 31
0.0
  0
LINE
  5
906
330
547
100
AcDbEntity
  8
Visible (ISO)
100
AcDbLine
 10
-14.84358107016032
 20
-1364.056843739381
 30
0.0
 11
-14.6574619942694
 21
-1364.235909799276
 31
0.0
  0
LINE
  5
907
330
547
100
AcDbEntity
  8
Visible (ISO)
100
AcDbLine
 10
-14.6574619942694
 20
-1364.235909799276
 30
0.0
 11
-4.709011123608433
 21
-1362.740969737189
 31
0.0
  0
ELLIPSE
  5
908
330
547
100
AcDbEntity
  8
Visible (ISO)
100
AcDbEllipse
 10
-14.6574619942694
 20
-1353.169517209091
 30
0.0
 11
7.323184099371366
 21
-8.207982373684432
 31
0.0
210
0.0
220
0.0
230
1.0
 40
0.6621092760253325
 41
0.0000000000000146
 42
3.141592653589805
  0
LINE
  5
909
330
547
100
AcDbEntity
  8
Visible (ISO)
100
AcDbLine
 10
-14.50000000000182
 20
-1338.262530929205
 30
0.0
 11
-14.50000000000182
 21
-1317.515999907561
 31
0.0
  0
LINE
  5
90A
330
547
100
AcDbEntity
  8
Visible (ISO)
100
AcDbLine
 10
-12.0
 20
-1317.51599990756
 30
0.0
 11
-14.50000000000182
 21
-1317.51599990756
 31
0.0
  0
LINE
  5
90B
330
547
100
AcDbEntity
  8
Visible (ISO)
100
AcDbLine
 10
14.49999999999727
 20
-1317.515999907562
 30
0.0
 11
14.49999999999727
 21
-1338.262530929205
 31
0.0
  0
LINE
  5
90C
330
547
100
AcDbEntity
  8
Visible (ISO)
100
AcDbLine
 10
11.99999999999818
 20
-1317.515999907561
 30
0.0
 11
14.49999999999727
 21
-1317.515999907561
 31
0.0
  0
LINE
  5
90D
330
547
100
AcDbEntity
  8
Visible (ISO)
100
AcDbLine
 10
-565.1780407622991
 20
-1984.752258733395
 30
0.0
 11
-565.1780407622991
 21
-2008.752258733395
 31
0.0
  0
LINE
  5
90E
330
547
100
AcDbEntity
  8
Visible (ISO)
100
AcDbLine
 10
-567.6780407623
 20
-1984.752258733395
 30
0.0
 11
-565.1780407622991
 21
-1984.752258733395
 31
0.0
  0
LINE
  5
90F
330
547
100
AcDbEntity
  8
Visible (ISO)
100
AcDbLine
 10
-567.6780407623
 20
-2008.752258733395
 30
0.0
 11
-565.1780407622991
 21
-2008.752258733395
 31
0.0
  0
LINE
  5
910
330
547
100
AcDbEntity
  8
Visible (ISO)
100
AcDbLine
 10
565.1788682716377
 20
-2008.849999999999
 30
0.0
 11
565.1788682716377
 21
-1984.849999999999
 31
0.0
  0
LINE
  5
911
330
547
100
AcDbEntity
  8
Visible (ISO)
100
AcDbLine
 10
567.6788682716376
 20
-2008.849999999999
 30
0.0
 11
565.1788682716377
 21
-2008.849999999999
 31
0.0
  0
LINE
  5
912
330
547
100
AcDbEntity
  8
Visible (ISO)
100
AcDbLine
 10
567.6788682716376
 20
-1984.849999999999
 30
0.0
 11
565.1788682716377
 21
-1984.849999999999
 31
0.0
  0
LINE
  5
913
330
547
100
AcDbEntity
  8
Visible (ISO)
100
AcDbLine
 10
551.0736375000068
 20
-1990.849999999999
 30
0.0
 11
551.0736375000068
 21
-2002.849999999999
 31
0.0
  0
LINE
  5
914
330
547
100
AcDbEntity
  8
Visible (ISO)
100
AcDbLine
 10
550.0000000000055
 20
-2001.776462499999
 30
0.0
 11
550.0000000000055
 21
-1991.923537499999
 31
0.0
  0
LINE
  5
915
330
547
100
AcDbEntity
  8
Visible (ISO)
100
AcDbLine
 10
550.0000000000055
 20
-1991.923537499999
 30
0.0
 11
551.0736375000068
 21
-1990.849999999999
 31
0.0
  0
LINE
  5
916
330
547
100
AcDbEntity
  8
Visible (ISO)
100
AcDbLine
 10
550.0000000000055
 20
-2001.776462499999
 30
0.0
 11
551.0736375000068
 21
-2002.849999999999
 31
0.0
  0
SPLINE
  5
917
330
547
100
AcDbEntity
  8
Visible (ISO)
100
AcDbSpline
210
0.0
220
0.0
230
1.0
 70
    12
 71
     2
 72
     6
 73
     3
 74
     0
 42
0.0000000001
 43
0.0000000001
 40
0.0
 40
0.0
 40
0.0
 40
0.5564242328364785
 40
0.5564242328364785
 40
0.5564242328364785
 10
586.6515942239747
 20
-2006.349999999999
 30
0.0
 41
1.0
 10
587.5001000000064
 20
-2003.804482671903
 30
0.0
 41
1.037954849302024
 10
587.5001000000082
 20
-2001.599999999999
 30
0.0
 41
1.0
  0
SPLINE
  5
918
330
547
100
AcDbEntity
  8
Visible (ISO)
100
AcDbSpline
210
0.0
220
0.0
230
1.0
 70
    28
 71
     2
 72
     6
 73
     3
 74
     0
 42
0.0000000001
 43
0.0000000001
 40
0.5564242328364775
 40
0.5564242328364775
 40
0.5564242328364775
 40
1.112848465672954
 40
1.112848465672954
 40
1.112848465672954
 10
587.5001000000082
 20
-2006.349999999999
 30
0.0
 41
1.0
 10
587.5001000000091
 20
-2006.349999999999
 30
0.0
 41
1.037954849302036
 10
586.6515942239747
 20
-2006.349999999999
 30
0.0
 41
1.0
  0
LINE
  5
919
330
547
100
AcDbEntity
  8
Visible (ISO)
100
AcDbLine
 10
587.5001000000082
 20
-2006.349999999999
 30
0.0
 11
587.5001000000082
 21
-2001.599999999999
 31
0.0
  0
SPLINE
  5
91A
330
547
100
AcDbEntity
  8
Visible (ISO)
100
AcDbSpline
210
0.0
220
0.0
230
1.0
 70
    12
 71
     2
 72
     6
 73
     3
 74
     0
 42
0.0000000001
 43
0.0000000001
 40
0.0
 40
0.0
 40
0.0
 40
0.5564242328364771
 40
0.5564242328364771
 40
0.5564242328364771
 10
586.6515942239747
 20
-1996.849999999998
 30
0.0
 41
1.0
 10
587.5001000000091
 20
-1994.304482671903
 30
0.0
 41
1.037954849302042
 10
587.5001000000082
 20
-1992.099999999998
 30
0.0
 41
1.0
  0
SPLINE
  5
91B
330
547
100
AcDbEntity
  8
Visible (ISO)
100
AcDbSpline
210
0.0
220
0.0
230
1.0
 70
    12
 71
     2
 72
     6
 73
     3
 74
     0
 42
0.0000000001
 43
0.0000000001
 40
0.5564242328364785
 40
0.5564242328364785
 40
0.5564242328364785
 40
1.112848465672956
 40
1.112848465672956
 40
1.112848465672956
 10
587.5001000000082
 20
-2001.599999999999
 30
0.0
 41
1.0
 10
587.5001000000091
 20
-1999.395517328094
 30
0.0
 41
1.037954849302036
 10
586.6515942239747
 20
-1996.849999999998
 30
0.0
 41
1.0
  0
LINE
  5
91C
330
547
100
AcDbEntity
  8
Visible (ISO)
100
AcDbLine
 10
587.5001000000082
 20
-2001.599999999999
 30
0.0
 11
587.5001000000082
 21
-1992.099999999998
 31
0.0
  0
SPLINE
  5
91D
330
547
100
AcDbEntity
  8
Visible (ISO)
100
AcDbSpline
210
0.0
220
0.0
230
1.0
 70
    28
 71
     2
 72
     6
 73
     3
 74
     0
 42
0.0000000001
 43
0.0000000001
 40
0.0
 40
0.0
 40
0.0
 40
0.5564242328364772
 40
0.5564242328364772
 40
0.5564242328364772
 10
586.6515942239747
 20
-1987.349999999998
 30
0.0
 41
1.0
 10
587.5001000000091
 20
-1987.349999999998
 30
0.0
 41
1.037954849302045
 10
587.5001000000082
 20
-1987.349999999998
 30
0.0
 41
1.0
  0
SPLINE
  5
91E
330
547
100
AcDbEntity
  8
Visible (ISO)
100
AcDbSpline
210
0.0
220
0.0
230
1.0
 70
    12
 71
     2
 72
     6
 73
     3
 74
     0
 42
0.0000000001
 43
0.0000000001
 40
0.5564242328364771
 40
0.5564242328364771
 40
0.5564242328364771
 40
1.112848465672952
 40
1.112848465672952
 40
1.112848465672952
 10
587.5001000000082
 20
-1992.099999999998
 30
0.0
 41
1.0
 10
587.5001000000091
 20
-1989.895517328095
 30
0.0
 41
1.037954849302037
 10
586.6515942239747
 20
-1987.349999999998
 30
0.0
 41
1.0
  0
LINE
  5
91F
330
547
100
AcDbEntity
  8
Visible (ISO)
100
AcDbLine
 10
587.5001000000082
 20
-1992.099999999998
 30
0.0
 11
587.5001000000082
 21
-1987.349999999998
 31
0.0
  0
LINE
  5
920
330
547
100
AcDbEntity
  8
Visible (ISO)
100
AcDbLine
 10
580.6001000000068
 20
-1987.349999999998
 30
0.0
 11
586.6515942239747
 21
-1987.349999999998
 31
0.0
  0
LINE
  5
921
330
547
100
AcDbEntity
  8
Visible (ISO)
100
AcDbLine
 10
580.6001000000068
 20
-2006.349999999999
 30
0.0
 11
580.6001000000068
 21
-1996.849999999998
 31
0.0
  0
LINE
  5
922
330
547
100
AcDbEntity
  8
Visible (ISO)
100
AcDbLine
 10
580.6001000000068
 20
-1996.849999999998
 30
0.0
 11
580.6001000000068
 21
-1987.349999999998
 31
0.0
  0
LINE
  5
923
330
547
100
AcDbEntity
  8
Visible (ISO)
100
AcDbLine
 10
580.6001000000068
 20
-2006.349999999999
 30
0.0
 11
586.6515942239747
 21
-2006.349999999999
 31
0.0
  0
LINE
  5
924
330
547
100
AcDbEntity
  8
Visible (ISO)
100
AcDbLine
 10
580.6001000000068
 20
-1996.849999999998
 30
0.0
 11
586.6515942239747
 21
-1996.849999999998
 31
0.0
  0
LINE
  5
925
330
547
100
AcDbEntity
  8
Visible (ISO)
100
AcDbLine
 10
572.0000000000072
 20
-2002.849999999999
 30
0.0
 11
571.6788682716367
 21
-2002.849999999999
 31
0.0
  0
LINE
  5
926
330
547
100
AcDbEntity
  8
Visible (ISO)
100
AcDbLine
 10
553.1788682716378
 20
-2002.849999999999
 30
0.0
 11
551.0736375000068
 21
-2002.849999999999
 31
0.0
  0
LINE
  5
927
330
547
100
AcDbEntity
  8
Visible (ISO)
100
AcDbLine
 10
572.0000000000072
 20
-1990.849999999999
 30
0.0
 11
571.6788682716367
 21
-1990.849999999999
 31
0.0
  0
LINE
  5
928
330
547
100
AcDbEntity
  8
Visible (ISO)
100
AcDbLine
 10
553.1788682716378
 20
-1990.849999999999
 30
0.0
 11
551.0736375000068
 21
-1990.849999999999
 31
0.0
  0
LINE
  5
929
330
547
100
AcDbEntity
  8
Visible (ISO)
100
AcDbLine
 10
580.6001000000068
 20
-2005.449999999999
 30
0.0
 11
580.0000000000072
 21
-2005.449999999999
 31
0.0
  0
LINE
  5
92A
330
547
100
AcDbEntity
  8
Visible (ISO)
100
AcDbLine
 10
580.6001000000068
 20
-1988.249999999998
 30
0.0
 11
580.0000000000072
 21
-1988.249999999998
 31
0.0
  0
LINE
  5
92B
330
547
100
AcDbEntity
  8
Visible (ISO)
100
AcDbLine
 10
-551.0728099906681
 20
-2002.752258733394
 30
0.0
 11
-551.0728099906681
 21
-1990.752258733395
 31
0.0
  0
LINE
  5
92C
330
547
100
AcDbEntity
  8
Visible (ISO)
100
AcDbLine
 10
-549.9991724906676
 20
-1991.825796233395
 30
0.0
 11
-549.9991724906676
 21
-2001.678721233394
 31
0.0
  0
LINE
  5
92D
330
547
100
AcDbEntity
  8
Visible (ISO)
100
AcDbLine
 10
-549.9991724906695
 20
-2001.678721233394
 30
0.0
 11
-551.0728099906681
 21
-2002.752258733394
 31
0.0
  0
LINE
  5
92E
330
547
100
AcDbEntity
  8
Visible (ISO)
100
AcDbLine
 10
-549.9991724906695
 20
-1991.825796233395
 30
0.0
 11
-551.0728099906681
 21
-1990.752258733395
 31
0.0
  0
SPLINE
  5
92F
330
547
100
AcDbEntity
  8
Visible (ISO)
100
AcDbSpline
210
0.0
220
0.0
230
1.0
 70
    12
 71
     2
 72
     6
 73
     3
 74
     0
 42
0.0000000001
 43
0.0000000001
 40
0.5564242328364772
 40
0.5564242328364772
 40
0.5564242328364772
 40
1.112848465672954
 40
1.112848465672954
 40
1.112848465672954
 10
-587.4992724906677
 20
-2001.502258733394
 30
0.0
 41
1.0
 10
-587.4992724906677
 20
-2003.706741405299
 30
0.0
 41
1.03795484930205
 10
-586.6507667146351
 20
-2006.252258733394
 30
0.0
 41
1.0
  0
LINE
  5
930
330
547
100
AcDbEntity
  8
Visible (ISO)
100
AcDbLine
 10
-587.4992724906677
 20
-2001.502258733394
 30
0.0
 11
-587.4992724906677
 21
-2006.252258733394
 31
0.0
  0
SPLINE
  5
931
330
547
100
AcDbEntity
  8
Visible (ISO)
100
AcDbSpline
210
0.0
220
0.0
230
1.0
 70
    28
 71
     2
 72
     6
 73
     3
 74
     0
 42
0.0000000001
 43
0.0000000001
 40
0.0
 40
0.0
 40
0.0
 40
0.5564242328364775
 40
0.5564242328364775
 40
0.5564242328364775
 10
-586.6507667146351
 20
-2006.252258733394
 30
0.0
 41
1.0
 10
-587.4992724906677
 20
-2006.252258733395
 30
0.0
 41
1.037954849302027
 10
-587.4992724906677
 20
-2006.252258733394
 30
0.0
 41
1.0
  0
SPLINE
  5
932
330
547
100
AcDbEntity
  8
Visible (ISO)
100
AcDbSpline
210
0.0
220
0.0
230
1.0
 70
    12
 71
     2
 72
     6
 73
     3
 74
     0
 42
0.0000000001
 43
0.0000000001
 40
0.5564242328364779
 40
0.5564242328364779
 40
0.5564242328364779
 40
1.112848465672955
 40
1.112848465672955
 40
1.112848465672955
 10
-587.4992724906677
 20
-1992.002258733395
 30
0.0
 41
1.0
 10
-587.4992724906677
 20
-1994.206741405299
 30
0.0
 41
1.037954849302045
 10
-586.6507667146351
 20
-1996.752258733395
 30
0.0
 41
1.0
  0
LINE
  5
933
330
547
100
AcDbEntity
  8
Visible (ISO)
100
AcDbLine
 10
-587.4992724906677
 20
-1992.002258733395
 30
0.0
 11
-587.4992724906677
 21
-2001.502258733394
 31
0.0
  0
SPLINE
  5
934
330
547
100
AcDbEntity
  8
Visible (ISO)
100
AcDbSpline
210
0.0
220
0.0
230
1.0
 70
    12
 71
     2
 72
     6
 73
     3
 74
     0
 42
0.0000000001
 43
0.0000000001
 40
0.0
 40
0.0
 40
0.0
 40
0.5564242328364772
 40
0.5564242328364772
 40
0.5564242328364772
 10
-586.6507667146351
 20
-1996.752258733395
 30
0.0
 41
1.0
 10
-587.4992724906677
 20
-1999.29777606149
 30
0.0
 41
1.03795484930204
 10
-587.4992724906677
 20
-2001.502258733394
 30
0.0
 41
1.0
  0
SPLINE
  5
935
330
547
100
AcDbEntity
  8
Visible (ISO)
100
AcDbSpline
210
0.0
220
0.0
230
1.0
 70
    28
 71
     2
 72
     6
 73
     3
 74
     0
 42
0.0000000001
 43
0.0000000001
 40
0.5564242328364772
 40
0.5564242328364772
 40
0.5564242328364772
 40
1.112848465672954
 40
1.112848465672954
 40
1.112848465672954
 10
-587.4992724906677
 20
-1987.252258733395
 30
0.0
 41
1.0
 10
-587.4992724906677
 20
-1987.252258733395
 30
0.0
 41
1.037954849302045
 10
-586.6507667146351
 20
-1987.252258733395
 30
0.0
 41
1.0
  0
LINE
  5
936
330
547
100
AcDbEntity
  8
Visible (ISO)
100
AcDbLine
 10
-587.4992724906677
 20
-1987.252258733395
 30
0.0
 11
-587.4992724906677
 21
-1992.002258733395
 31
0.0
  0
SPLINE
  5
937
330
547
100
AcDbEntity
  8
Visible (ISO)
100
AcDbSpline
210
0.0
220
0.0
230
1.0
 70
    12
 71
     2
 72
     6
 73
     3
 74
     0
 42
0.0000000001
 43
0.0000000001
 40
0.0
 40
0.0
 40
0.0
 40
0.5564242328364779
 40
0.5564242328364779
 40
0.5564242328364779
 10
-586.6507667146351
 20
-1987.252258733395
 30
0.0
 41
1.0
 10
-587.4992724906677
 20
-1989.79777606149
 30
0.0
 41
1.03795484930204
 10
-587.4992724906677
 20
-1992.002258733395
 30
0.0
 41
1.0
  0
LINE
  5
938
330
547
100
AcDbEntity
  8
Visible (ISO)
100
AcDbLine
 10
-580.5992724906691
 20
-1987.252258733395
 30
0.0
 11
-586.6507667146351
 21
-1987.252258733395
 31
0.0
  0
LINE
  5
939
330
547
100
AcDbEntity
  8
Visible (ISO)
100
AcDbLine
 10
-580.5992724906691
 20
-1996.752258733395
 30
0.0
 11
-586.6507667146351
 21
-1996.752258733395
 31
0.0
  0
LINE
  5
93A
330
547
100
AcDbEntity
  8
Visible (ISO)
100
AcDbLine
 10
-580.5992724906691
 20
-1987.252258733395
 30
0.0
 11
-580.5992724906691
 21
-1996.752258733395
 31
0.0
  0
LINE
  5
93B
330
547
100
AcDbEntity
  8
Visible (ISO)
100
AcDbLine
 10
-580.5992724906691
 20
-2006.252258733394
 30
0.0
 11
-586.6507667146351
 21
-2006.252258733394
 31
0.0
  0
LINE
  5
93C
330
547
100
AcDbEntity
  8
Visible (ISO)
100
AcDbLine
 10
-580.5992724906691
 20
-1996.752258733395
 30
0.0
 11
-580.5992724906691
 21
-2006.252258733394
 31
0.0
  0
LINE
  5
93D
330
547
100
AcDbEntity
  8
Visible (ISO)
100
AcDbLine
 10
-571.9991724906676
 20
-1990.752258733395
 30
0.0
 11
-571.6780407622991
 21
-1990.752258733395
 31
0.0
  0
LINE
  5
93E
330
547
100
AcDbEntity
  8
Visible (ISO)
100
AcDbLine
 10
-553.1780407623
 20
-1990.752258733395
 30
0.0
 11
-551.0728099906681
 21
-1990.752258733395
 31
0.0
  0
LINE
  5
93F
330
547
100
AcDbEntity
  8
Visible (ISO)
100
AcDbLine
 10
-571.9991724906676
 20
-2002.752258733394
 30
0.0
 11
-571.6780407622991
 21
-2002.752258733394
 31
0.0
  0
LINE
  5
940
330
547
100
AcDbEntity
  8
Visible (ISO)
100
AcDbLine
 10
-553.1780407623
 20
-2002.752258733394
 30
0.0
 11
-551.0728099906681
 21
-2002.752258733394
 31
0.0
  0
LINE
  5
941
330
547
100
AcDbEntity
  8
Visible (ISO)
100
AcDbLine
 10
-580.5992724906691
 20
-1988.152258733394
 30
0.0
 11
-579.9991724906676
 21
-1988.152258733394
 31
0.0
  0
LINE
  5
942
330
547
100
AcDbEntity
  8
Visible (ISO)
100
AcDbLine
 10
-580.5992724906691
 20
-2005.352258733395
 30
0.0
 11
-579.9991724906676
 21
-2005.352258733395
 31
0.0
  0
SPLINE
  5
943
330
547
100
AcDbEntity
  8
Visible (ISO)
100
AcDbSpline
210
0.0
220
0.0
230
1.0
 70
    12
 71
     2
 72
     6
 73
     3
 74
     0
 42
0.0000000001
 43
0.0000000001
 40
0.5564242328364772
 40
0.5564242328364772
 40
0.5564242328364772
 40
1.112848465672954
 40
1.112848465672954
 40
1.112848465672954
 10
22.0001000000002
 20
-1324.765999907561
 30
0.0
 41
1.0
 10
22.0001000000002
 20
-1322.561517235656
 30
0.0
 41
1.03795484930205
 10
21.15159422396664
 20
-1320.015999907561
 30
0.0
 41
1.0
  0
LINE
  5
944
330
547
100
AcDbEntity
  8
Visible (ISO)
100
AcDbLine
 10
22.0001000000002
 20
-1324.765999907561
 30
0.0
 11
22.0001000000002
 21
-1320.015999907561
 31
0.0
  0
SPLINE
  5
945
330
547
100
AcDbEntity
  8
Visible (ISO)
100
AcDbSpline
210
0.0
220
0.0
230
1.0
 70
    28
 71
     2
 72
     6
 73
     3
 74
     0
 42
0.0000000001
 43
0.0000000001
 40
0.0
 40
0.0
 40
0.0
 40
0.5564242328364775
 40
0.5564242328364775
 40
0.5564242328364775
 10
21.15159422396664
 20
-1320.015999907561
 30
0.0
 41
1.0
 10
22.0001000000002
 20
-1320.015999907561
 30
0.0
 41
1.037954849302027
 10
22.0001000000002
 20
-1320.015999907561
 30
0.0
 41
1.0
  0
SPLINE
  5
946
330
547
100
AcDbEntity
  8
Visible (ISO)
100
AcDbSpline
210
0.0
220
0.0
230
1.0
 70
    12
 71
     2
 72
     6
 73
     3
 74
     0
 42
0.0000000001
 43
0.0000000001
 40
0.5564242328364779
 40
0.5564242328364779
 40
0.5564242328364779
 40
1.112848465672955
 40
1.112848465672955
 40
1.112848465672955
 10
22.0001000000002
 20
-1334.265999907561
 30
0.0
 41
1.0
 10
22.0001000000002
 20
-1332.061517235657
 30
0.0
 41
1.037954849302045
 10
21.15159422396664
 20
-1329.515999907561
 30
0.0
 41
1.0
  0
LINE
  5
947
330
547
100
AcDbEntity
  8
Visible (ISO)
100
AcDbLine
 10
22.0001000000002
 20
-1334.265999907561
 30
0.0
 11
22.0001000000002
 21
-1324.765999907561
 31
0.0
  0
SPLINE
  5
948
330
547
100
AcDbEntity
  8
Visible (ISO)
100
AcDbSpline
210
0.0
220
0.0
230
1.0
 70
    12
 71
     2
 72
     6
 73
     3
 74
     0
 42
0.0000000001
 43
0.0000000001
 40
0.0
 40
0.0
 40
0.0
 40
0.5564242328364772
 40
0.5564242328364772
 40
0.5564242328364772
 10
21.15159422396664
 20
-1329.515999907561
 30
0.0
 41
1.0
 10
22.0001000000002
 20
-1326.970482579465
 30
0.0
 41
1.03795484930204
 10
22.0001000000002
 20
-1324.765999907561
 30
0.0
 41
1.0
  0
SPLINE
  5
949
330
547
100
AcDbEntity
  8
Visible (ISO)
100
AcDbSpline
210
0.0
220
0.0
230
1.0
 70
    28
 71
     2
 72
     6
 73
     3
 74
     0
 42
0.0000000001
 43
0.0000000001
 40
0.5564242328364772
 40
0.5564242328364772
 40
0.5564242328364772
 40
1.112848465672954
 40
1.112848465672954
 40
1.112848465672954
 10
22.0001000000002
 20
-1339.015999907561
 30
0.0
 41
1.0
 10
22.0001000000002
 20
-1339.015999907561
 30
0.0
 41
1.037954849302045
 10
21.15159422396664
 20
-1339.015999907561
 30
0.0
 41
1.0
  0
LINE
  5
94A
330
547
100
AcDbEntity
  8
Visible (ISO)
100
AcDbLine
 10
22.0001000000002
 20
-1339.015999907561
 30
0.0
 11
22.0001000000002
 21
-1334.265999907561
 31
0.0
  0
SPLINE
  5
94B
330
547
100
AcDbEntity
  8
Visible (ISO)
100
AcDbSpline
210
0.0
220
0.0
230
1.0
 70
    12
 71
     2
 72
     6
 73
     3
 74
     0
 42
0.0000000001
 43
0.0000000001
 40
0.0
 40
0.0
 40
0.0
 40
0.5564242328364779
 40
0.5564242328364779
 40
0.5564242328364779
 10
21.15159422396664
 20
-1339.015999907561
 30
0.0
 41
1.0
 10
22.0001000000002
 20
-1336.470482579466
 30
0.0
 41
1.03795484930204
 10
22.0001000000002
 20
-1334.265999907561
 30
0.0
 41
1.0
  0
LINE
  5
94C
330
547
100
AcDbEntity
  8
Visible (ISO)
100
AcDbLine
 10
18.11930533696977
 20
-1339.015999907561
 30
0.0
 11
21.15159422396664
 21
-1339.015999907561
 31
0.0
  0
LINE
  5
94D
330
547
100
AcDbEntity
  8
Visible (ISO)
100
AcDbLine
 10
15.10010000000056
 20
-1329.515999907561
 30
0.0
 11
21.15159422396664
 21
-1329.515999907561
 31
0.0
  0
LINE
  5
94E
330
547
100
AcDbEntity
  8
Visible (ISO)
100
AcDbLine
 10
15.10010000000056
 20
-1338.359746961006
 30
0.0
 11
15.10010000000056
 21
-1329.515999907561
 31
0.0
  0
LINE
  5
94F
330
547
100
AcDbEntity
  8
Visible (ISO)
100
AcDbLine
 10
15.10010000000056
 20
-1320.015999907561
 30
0.0
 11
21.15159422396664
 21
-1320.015999907561
 31
0.0
  0
LINE
  5
950
330
547
100
AcDbEntity
  8
Visible (ISO)
100
AcDbLine
 10
15.10010000000056
 20
-1329.515999907561
 30
0.0
 11
15.10010000000056
 21
-1320.015999907561
 31
0.0
  0
LINE
  5
951
330
547
100
AcDbEntity
  8
Visible (ISO)
100
AcDbLine
 10
15.10010000000056
 20
-1338.115999907561
 30
0.0
 11
14.49999999999818
 21
-1338.115999907561
 31
0.0
  0
LINE
  5
952
330
547
100
AcDbEntity
  8
Visible (ISO)
100
AcDbLine
 10
15.10010000000056
 20
-1320.915999907561
 30
0.0
 11
14.49999999999818
 21
-1320.915999907561
 31
0.0
  0
LINE
  5
953
330
547
100
AcDbEntity
  8
Visible (ISO)
100
AcDbLine
 10
-26.5
 20
-1338.215999907561
 30
0.0
 11
-26.5
 21
-1320.815999907561
 31
0.0
  0
LINE
  5
954
330
547
100
AcDbEntity
  8
Visible (ISO)
100
AcDbLine
 10
-22.50000000000182
 20
-1338.215999907561
 30
0.0
 11
-22.50000000000182
 21
-1320.815999907561
 31
0.0
  0
LINE
  5
955
330
547
100
AcDbEntity
  8
Visible (ISO)
100
AcDbLine
 10
-22.50000000000182
 20
-1338.215999907561
 30
0.0
 11
-26.5
 21
-1338.215999907561
 31
0.0
  0
LINE
  5
956
330
547
100
AcDbEntity
  8
Visible (ISO)
100
AcDbLine
 10
-22.50000000000182
 20
-1320.815999907561
 30
0.0
 11
-26.5
 21
-1320.815999907561
 31
0.0
  0
SPLINE
  5
957
330
547
100
AcDbEntity
  8
Visible (ISO)
100
AcDbSpline
210
0.0
220
0.0
230
1.0
 70
    28
 71
     2
 72
     6
 73
     3
 74
     0
 42
0.0000000001
 43
0.0000000001
 40
0.0
 40
0.0
 40
0.0
 40
0.5550071655870046
 40
0.5550071655870046
 40
0.5550071655870046
 10
-21.18961400861735
 20
-1339.015999907561
 30
0.0
 41
1.0
 10
-22.03811978465001
 20
-1339.015999907561
 30
0.0
 41
1.077350269189623
 10
-22.03811978465001
 20
-1339.01599990756
 30
0.0
 41
1.077350269189623
  0
SPLINE
  5
958
330
547
100
AcDbEntity
  8
Visible (ISO)
100
AcDbSpline
210
0.0
220
0.0
230
1.0
 70
    12
 71
     2
 72
     6
 73
     3
 74
     0
 42
0.0000000001
 43
0.0000000001
 40
0.0
 40
0.0
 40
0.0
 40
1.110014331174022
 40
1.110014331174022
 40
1.110014331174022
 10
-21.18961400861735
 20
-1329.515999907561
 30
0.0
 41
1.0
 10
-22.7729473419522
 20
-1334.265999907561
 30
0.0
 41
1.154700538379248
 10
-21.18961400861735
 20
-1339.015999907561
 30
0.0
 41
1.0
  0
SPLINE
  5
959
330
547
100
AcDbEntity
  8
Visible (ISO)
100
AcDbSpline
210
0.0
220
0.0
230
1.0
 70
    12
 71
     2
 72
     6
 73
     3
 74
     0
 42
0.0000000001
 43
0.0000000001
 40
0.0
 40
0.0
 40
0.0
 40
1.110014331174022
 40
1.110014331174022
 40
1.110014331174022
 10
-21.18961400861735
 20
-1320.015999907561
 30
0.0
 41
1.0
 10
-22.7729473419522
 20
-1324.765999907561
 30
0.0
 41
1.154700538379255
 10
-21.18961400861735
 20
-1329.515999907561
 30
0.0
 41
1.0
  0
SPLINE
  5
95A
330
547
100
AcDbEntity
  8
Visible (ISO)
100
AcDbSpline
210
0.0
220
0.0
230
1.0
 70
    28
 71
     2
 72
     6
 73
     3
 74
     0
 42
0.0000000001
 43
0.0000000001
 40
0.5550071655870191
 40
0.5550071655870191
 40
0.5550071655870191
 40
1.110014331174022
 40
1.110014331174022
 40
1.110014331174022
 10
-22.03811978465001
 20
-1320.015999907561
 30
0.0
 41
1.077350269189624
 10
-22.03811978465001
 20
-1320.015999907561
 30
0.0
 41
1.077350269189623
 10
-21.18961400861735
 20
-1320.015999907561
 30
0.0
 41
1.0
  0
SPLINE
  5
95B
330
547
100
AcDbEntity
  8
Visible (ISO)
100
AcDbSpline
210
0.0
220
0.0
230
1.0
 70
    28
 71
     2
 72
     6
 73
     3
 74
     0
 42
0.0000000001
 43
0.0000000001
 40
0.0
 40
0.0
 40
0.0
 40
0.5550071655869968
 40
0.5550071655869968
 40
0.5550071655869968
 10
-15.81038599138446
 20
-1320.015999907561
 30
0.0
 41
1.0
 10
-14.96188021535272
 20
-1320.015999907562
 30
0.0
 41
1.077350269189623
 10
-14.96188021535272
 20
-1320.015999907561
 30
0.0
 41
1.077350269189623
  0
SPLINE
  5
95C
330
547
100
AcDbEntity
  8
Visible (ISO)
100
AcDbSpline
210
0.0
220
0.0
230
1.0
 70
    12
 71
     2
 72
     6
 73
     3
 74
     0
 42
0.0000000001
 43
0.0000000001
 40
0.0
 40
0.0
 40
0.0
 40
1.110014331174021
 40
1.110014331174021
 40
1.110014331174021
 10
-15.81038599138446
 20
-1329.515999907561
 30
0.0
 41
1.0
 10
-14.22705265805053
 20
-1324.765999907561
 30
0.0
 41
1.154700538379253
 10
-15.81038599138446
 20
-1320.015999907561
 30
0.0
 41
1.0
  0
SPLINE
  5
95D
330
547
100
AcDbEntity
  8
Visible (ISO)
100
AcDbSpline
210
0.0
220
0.0
230
1.0
 70
    12
 71
     2
 72
     6
 73
     3
 74
     0
 42
0.0000000001
 43
0.0000000001
 40
0.0578773805010747
 40
0.0578773805010747
 40
0.0578773805010747
 40
1.110014331174022
 40
1.110014331174022
 40
1.110014331174022
 10
-15.63239213946508
 20
-1338.456579735676
 30
0.0
 41
1.015291348597141
 10
-14.29905186526321
 20
-1334.050002285929
 30
0.0
 41
1.146634280429207
 10
-15.81038599138446
 20
-1329.515999907561
 30
0.0
 41
1.0
  0
LINE
  5
95E
330
547
100
AcDbEntity
  8
Visible (ISO)
100
AcDbLine
 10
-22.50000000000182
 20
-1320.815999907561
 30
0.0
 11
-22.03811978465001
 21
-1320.015999907561
 31
0.0
  0
LINE
  5
95F
330
547
100
AcDbEntity
  8
Visible (ISO)
100
AcDbLine
 10
-22.50000000000182
 20
-1338.215999907561
 30
0.0
 11
-22.03811978465001
 21
-1339.015999907561
 31
0.0
  0
LINE
  5
960
330
547
100
AcDbEntity
  8
Visible (ISO)
100
AcDbLine
 10
-14.50000000000182
 20
-1338.215999907561
 30
0.0
 11
-14.52943667924683
 21
-1338.266985731621
 31
0.0
  0
LINE
  5
961
330
547
100
AcDbEntity
  8
Visible (ISO)
100
AcDbLine
 10
-14.50000000000182
 20
-1320.815999907561
 30
0.0
 11
-14.96188021535272
 21
-1320.015999907561
 31
0.0
  0
LINE
  5
962
330
547
100
AcDbEntity
  8
Visible (ISO)
100
AcDbLine
 10
-18.11930533697159
 20
-1339.015999907561
 30
0.0
 11
-21.18961400861735
 21
-1339.015999907561
 31
0.0
  0
LINE
  5
963
330
547
100
AcDbEntity
  8
Visible (ISO)
100
AcDbLine
 10
-15.81038599138446
 20
-1329.515999907561
 30
0.0
 11
-21.18961400861735
 21
-1329.515999907561
 31
0.0
  0
LINE
  5
964
330
547
100
AcDbEntity
  8
Visible (ISO)
100
AcDbLine
 10
-15.81038599138446
 20
-1320.015999907561
 30
0.0
 11
-21.18961400861735
 21
-1320.015999907561
 31
0.0
  0
LINE
  5
965
330
547
100
AcDbEntity
  8
Visible (ISO)
100
AcDbLine
 10
-553.1780407623
 20
-1988.052258733394
 30
0.0
 11
-553.1780407623
 21
-2005.452258733395
 31
0.0
  0
LINE
  5
966
330
547
100
AcDbEntity
  8
Visible (ISO)
100
AcDbLine
 10
-557.1780407623
 20
-1988.052258733394
 30
0.0
 11
-557.1780407623
 21
-2005.452258733395
 31
0.0
  0
LINE
  5
967
330
547
100
AcDbEntity
  8
Visible (ISO)
100
AcDbLine
 10
-557.1780407623
 20
-1988.052258733394
 30
0.0
 11
-553.1780407623
 21
-1988.052258733394
 31
0.0
  0
LINE
  5
968
330
547
100
AcDbEntity
  8
Visible (ISO)
100
AcDbLine
 10
-557.1780407623
 20
-2005.452258733395
 30
0.0
 11
-553.1780407623
 21
-2005.452258733395
 31
0.0
  0
SPLINE
  5
969
330
547
100
AcDbEntity
  8
Visible (ISO)
100
AcDbSpline
210
0.0
220
0.0
230
1.0
 70
    12
 71
     2
 72
     6
 73
     3
 74
     0
 42
0.0000000001
 43
0.0000000001
 40
0.0
 40
0.0
 40
0.0
 40
1.110014331174022
 40
1.110014331174022
 40
1.110014331174022
 10
-558.4884267536818
 20
-1996.752258733395
 30
0.0
 41
1.0
 10
-556.9050934203496
 20
-1992.002258733395
 30
0.0
 41
1.154700538379245
 10
-558.4884267536818
 20
-1987.252258733395
 30
0.0
 41
1.0
  0
SPLINE
  5
96A
330
547
100
AcDbEntity
  8
Visible (ISO)
100
AcDbSpline
210
0.0
220
0.0
230
1.0
 70
    12
 71
     2
 72
     6
 73
     3
 74
     0
 42
0.0000000001
 43
0.0000000001
 40
0.0
 40
0.0
 40
0.0
 40
1.110014331174024
 40
1.110014331174024
 40
1.110014331174024
 10
-558.4884267536818
 20
-2006.252258733394
 30
0.0
 41
1.0
 10
-556.9050934203496
 20
-2001.502258733394
 30
0.0
 41
1.154700538379244
 10
-558.4884267536818
 20
-1996.752258733395
 30
0.0
 41
1.0
  0
SPLINE
  5
96B
330
547
100
AcDbEntity
  8
Visible (ISO)
100
AcDbSpline
210
0.0
220
0.0
230
1.0
 70
    28
 71
     2
 72
     6
 73
     3
 74
     0
 42
0.0000000001
 43
0.0000000001
 40
0.5550071655870232
 40
0.5550071655870232
 40
0.5550071655870232
 40
1.110014331174024
 40
1.110014331174024
 40
1.110014331174024
 10
-557.6399209776518
 20
-2006.252258733395
 30
0.0
 41
1.077350269189623
 10
-557.6399209776518
 20
-2006.252258733395
 30
0.0
 41
1.077350269189623
 10
-558.4884267536818
 20
-2006.252258733394
 30
0.0
 41
1.0
  0
SPLINE
  5
96C
330
547
100
AcDbEntity
  8
Visible (ISO)
100
AcDbSpline
210
0.0
220
0.0
230
1.0
 70
    28
 71
     2
 72
     6
 73
     3
 74
     0
 42
0.0000000001
 43
0.0000000001
 40
0.0
 40
0.0
 40
0.0
 40
0.555007165587
 40
0.555007165587
 40
0.555007165587
 10
-558.4884267536818
 20
-1987.252258733395
 30
0.0
 41
1.0
 10
-557.6399209776518
 20
-1987.252258733395
 30
0.0
 41
1.077350269189623
 10
-557.6399209776518
 20
-1987.252258733395
 30
0.0
 41
1.077350269189624
  0
SPLINE
  5
96D
330
547
100
AcDbEntity
  8
Visible (ISO)
100
AcDbSpline
210
0.0
220
0.0
230
1.0
 70
    12
 71
     2
 72
     6
 73
     3
 74
     0
 42
0.0000000001
 43
0.0000000001
 40
0.0
 40
0.0
 40
0.0
 40
1.110014331174024
 40
1.110014331174024
 40
1.110014331174024
 10
-563.8676547709155
 20
-1996.752258733395
 30
0.0
 41
1.0
 10
-565.4509881042493
 20
-2001.502258733394
 30
0.0
 41
1.154700538379249
 10
-563.8676547709155
 20
-2006.252258733394
 30
0.0
 41
1.0
  0
SPLINE
  5
96E
330
547
100
AcDbEntity
  8
Visible (ISO)
100
AcDbSpline
210
0.0
220
0.0
230
1.0
 70
    12
 71
     2
 72
     6
 73
     3
 74
     0
 42
0.0000000001
 43
0.0000000001
 40
0.0
 40
0.0
 40
0.0
 40
1.110014331174022
 40
1.110014331174022
 40
1.110014331174022
 10
-563.8676547709155
 20
-1987.252258733395
 30
0.0
 41
1.0
 10
-565.4509881042493
 20
-1992.002258733395
 30
0.0
 41
1.154700538379253
 10
-563.8676547709155
 20
-1996.752258733395
 30
0.0
 41
1.0
  0
SPLINE
  5
96F
330
547
100
AcDbEntity
  8
Visible (ISO)
100
AcDbSpline
210
0.0
220
0.0
230
1.0
 70
    28
 71
     2
 72
     6
 73
     3
 74
     0
 42
0.0000000001
 43
0.0000000001
 40
0.5550071655870111
 40
0.5550071655870111
 40
0.5550071655870111
 40
1.110014331174022
 40
1.110014331174022
 40
1.110014331174022
 10
-564.7161605469482
 20
-1987.252258733395
 30
0.0
 41
1.077350269189623
 10
-564.7161605469482
 20
-1987.252258733395
 30
0.0
 41
1.077350269189623
 10
-563.8676547709155
 20
-1987.252258733395
 30
0.0
 41
1.0
  0
SPLINE
  5
970
330
547
100
AcDbEntity
  8
Visible (ISO)
100
AcDbSpline
210
0.0
220
0.0
230
1.0
 70
    28
 71
     2
 72
     6
 73
     3
 74
     0
 42
0.0000000001
 43
0.0000000001
 40
0.0
 40
0.0
 40
0.0
 40
0.5550071655870008
 40
0.5550071655870008
 40
0.5550071655870008
 10
-563.8676547709155
 20
-2006.252258733394
 30
0.0
 41
1.0
 10
-564.7161605469482
 20
-2006.252258733395
 30
0.0
 41
1.077350269189623
 10
-564.7161605469482
 20
-2006.252258733395
 30
0.0
 41
1.077350269189623
  0
LINE
  5
971
330
547
100
AcDbEntity
  8
Visible (ISO)
100
AcDbLine
 10
-557.1780407623
 20
-2005.452258733395
 30
0.0
 11
-557.6399209776518
 21
-2006.252258733394
 31
0.0
  0
LINE
  5
972
330
547
100
AcDbEntity
  8
Visible (ISO)
100
AcDbLine
 10
-557.1780407623
 20
-1988.052258733394
 30
0.0
 11
-557.6399209776518
 21
-1987.252258733395
 31
0.0
  0
LINE
  5
973
330
547
100
AcDbEntity
  8
Visible (ISO)
100
AcDbLine
 10
-565.1780407622991
 20
-1988.052258733394
 30
0.0
 11
-564.7161605469482
 21
-1987.252258733395
 31
0.0
  0
LINE
  5
974
330
547
100
AcDbEntity
  8
Visible (ISO)
100
AcDbLine
 10
-565.1780407622991
 20
-2005.452258733395
 30
0.0
 11
-564.7161605469482
 21
-2006.252258733394
 31
0.0
  0
LINE
  5
975
330
547
100
AcDbEntity
  8
Visible (ISO)
100
AcDbLine
 10
-563.8676547709155
 20
-2006.252258733394
 30
0.0
 11
-558.4884267536818
 21
-2006.252258733394
 31
0.0
  0
LINE
  5
976
330
547
100
AcDbEntity
  8
Visible (ISO)
100
AcDbLine
 10
-563.8676547709155
 20
-1996.752258733395
 30
0.0
 11
-558.4884267536818
 21
-1996.752258733395
 31
0.0
  0
LINE
  5
977
330
547
100
AcDbEntity
  8
Visible (ISO)
100
AcDbLine
 10
-563.8676547709155
 20
-1987.252258733395
 30
0.0
 11
-558.4884267536818
 21
-1987.252258733395
 31
0.0
  0
LINE
  5
978
330
547
100
AcDbEntity
  8
Visible (ISO)
100
AcDbLine
 10
553.1788682716378
 20
-2005.549999999999
 30
0.0
 11
553.1788682716378
 21
-1988.149999999999
 31
0.0
  0
LINE
  5
979
330
547
100
AcDbEntity
  8
Visible (ISO)
100
AcDbLine
 10
557.1788682716378
 20
-2005.549999999999
 30
0.0
 11
557.1788682716378
 21
-1988.149999999999
 31
0.0
  0
LINE
  5
97A
330
547
100
AcDbEntity
  8
Visible (ISO)
100
AcDbLine
 10
557.1788682716378
 20
-2005.549999999999
 30
0.0
 11
553.1788682716378
 21
-2005.549999999999
 31
0.0
  0
LINE
  5
97B
330
547
100
AcDbEntity
  8
Visible (ISO)
100
AcDbLine
 10
557.1788682716378
 20
-1988.149999999999
 30
0.0
 11
553.1788682716378
 21
-1988.149999999999
 31
0.0
  0
SPLINE
  5
97C
330
547
100
AcDbEntity
  8
Visible (ISO)
100
AcDbSpline
210
0.0
220
0.0
230
1.0
 70
    28
 71
     2
 72
     6
 73
     3
 74
     0
 42
0.0000000001
 43
0.0000000001
 40
0.0
 40
0.0
 40
0.0
 40
0.5550071655870123
 40
0.5550071655870123
 40
0.5550071655870123
 10
558.4892542630223
 20
-2006.349999999999
 30
0.0
 41
1.0
 10
557.6407484869905
 20
-2006.349999999999
 30
0.0
 41
1.077350269189623
 10
557.6407484869905
 20
-2006.349999999999
 30
0.0
 41
1.077350269189623
  0
SPLINE
  5
97D
330
547
100
AcDbEntity
  8
Visible (ISO)
100
AcDbSpline
210
0.0
220
0.0
230
1.0
 70
    12
 71
     2
 72
     6
 73
     3
 74
     0
 42
0.0000000001
 43
0.0000000001
 40
0.0
 40
0.0
 40
0.0
 40
1.110014331174022
 40
1.110014331174022
 40
1.110014331174022
 10
558.4892542630223
 20
-1996.85
 30
0.0
 41
1.0
 10
556.9059209296873
 20
-2001.599999999999
 30
0.0
 41
1.154700538379248
 10
558.4892542630223
 20
-2006.349999999999
 30
0.0
 41
1.0
  0
SPLINE
  5
97E
330
547
100
AcDbEntity
  8
Visible (ISO)
100
AcDbSpline
210
0.0
220
0.0
230
1.0
 70
    12
 71
     2
 72
     6
 73
     3
 74
     0
 42
0.0000000001
 43
0.0000000001
 40
0.0
 40
0.0
 40
0.0
 40
1.110014331174022
 40
1.110014331174022
 40
1.110014331174022
 10
558.4892542630223
 20
-1987.349999999999
 30
0.0
 41
1.0
 10
556.9059209296884
 20
-1992.1
 30
0.0
 41
1.154700538379255
 10
558.4892542630223
 20
-1996.85
 30
0.0
 41
1.0
  0
SPLINE
  5
97F
330
547
100
AcDbEntity
  8
Visible (ISO)
100
AcDbSpline
210
0.0
220
0.0
230
1.0
 70
    28
 71
     2
 72
     6
 73
     3
 74
     0
 42
0.0000000001
 43
0.0000000001
 40
0.5550071655870222
 40
0.5550071655870222
 40
0.5550071655870222
 40
1.110014331174022
 40
1.110014331174022
 40
1.110014331174022
 10
557.6407484869905
 20
-1987.349999999999
 30
0.0
 41
1.077350269189624
 10
557.6407484869905
 20
-1987.349999999999
 30
0.0
 41
1.077350269189623
 10
558.4892542630223
 20
-1987.349999999999
 30
0.0
 41
1.0
  0
SPLINE
  5
980
330
547
100
AcDbEntity
  8
Visible (ISO)
100
AcDbSpline
210
0.0
220
0.0
230
1.0
 70
    28
 71
     2
 72
     6
 73
     3
 74
     0
 42
0.0000000001
 43
0.0000000001
 40
0.0
 40
0.0
 40
0.0
 40
0.5550071655869996
 40
0.5550071655869996
 40
0.5550071655869996
 10
563.8684822802559
 20
-1987.349999999999
 30
0.0
 41
1.0
 10
564.716988056286
 20
-1987.349999999999
 30
0.0
 41
1.077350269189623
 10
564.7169880562868
 20
-1987.349999999999
 30
0.0
 41
1.077350269189623
  0
SPLINE
  5
981
330
547
100
AcDbEntity
  8
Visible (ISO)
100
AcDbSpline
210
0.0
220
0.0
230
1.0
 70
    12
 71
     2
 72
     6
 73
     3
 74
     0
 42
0.0000000001
 43
0.0000000001
 40
0.0
 40
0.0
 40
0.0
 40
1.110014331174021
 40
1.110014331174021
 40
1.110014331174021
 10
563.8684822802559
 20
-1996.85
 30
0.0
 41
1.0
 10
565.4518156135882
 20
-1992.1
 30
0.0
 41
1.154700538379253
 10
563.8684822802559
 20
-1987.349999999999
 30
0.0
 41
1.0
  0
SPLINE
  5
982
330
547
100
AcDbEntity
  8
Visible (ISO)
100
AcDbSpline
210
0.0
220
0.0
230
1.0
 70
    12
 71
     2
 72
     6
 73
     3
 74
     0
 42
0.0000000001
 43
0.0000000001
 40
0.0
 40
0.0
 40
0.0
 40
1.110014331174022
 40
1.110014331174022
 40
1.110014331174022
 10
563.8684822802559
 20
-2006.349999999999
 30
0.0
 41
1.0
 10
565.4518156135882
 20
-2001.599999999999
 30
0.0
 41
1.154700538379253
 10
563.8684822802559
 20
-1996.85
 30
0.0
 41
1.0
  0
SPLINE
  5
983
330
547
100
AcDbEntity
  8
Visible (ISO)
100
AcDbSpline
210
0.0
220
0.0
230
1.0
 70
    28
 71
     2
 72
     6
 73
     3
 74
     0
 42
0.0000000001
 43
0.0000000001
 40
0.555007165587023
 40
0.555007165587023
 40
0.555007165587023
 40
1.110014331174022
 40
1.110014331174022
 40
1.110014331174022
 10
564.7169880562868
 20
-2006.349999999999
 30
0.0
 41
1.077350269189623
 10
564.716988056286
 20
-2006.349999999999
 30
0.0
 41
1.077350269189623
 10
563.8684822802559
 20
-2006.349999999999
 30
0.0
 41
1.0
  0
LINE
  5
984
330
547
100
AcDbEntity
  8
Visible (ISO)
100
AcDbLine
 10
557.1788682716378
 20
-1988.149999999999
 30
0.0
 11
557.6407484869905
 21
-1987.349999999999
 31
0.0
  0
LINE
  5
985
330
547
100
AcDbEntity
  8
Visible (ISO)
100
AcDbLine
 10
557.1788682716378
 20
-2005.549999999999
 30
0.0
 11
557.6407484869905
 21
-2006.349999999999
 31
0.0
  0
LINE
  5
986
330
547
100
AcDbEntity
  8
Visible (ISO)
100
AcDbLine
 10
565.1788682716377
 20
-2005.549999999999
 30
0.0
 11
564.716988056286
 21
-2006.349999999999
 31
0.0
  0
LINE
  5
987
330
547
100
AcDbEntity
  8
Visible (ISO)
100
AcDbLine
 10
565.1788682716377
 20
-1988.149999999999
 30
0.0
 11
564.716988056286
 21
-1987.349999999999
 31
0.0
  0
LINE
  5
988
330
547
100
AcDbEntity
  8
Visible (ISO)
100
AcDbLine
 10
563.8684822802559
 20
-2006.349999999999
 30
0.0
 11
558.4892542630223
 21
-2006.349999999999
 31
0.0
  0
LINE
  5
989
330
547
100
AcDbEntity
  8
Visible (ISO)
100
AcDbLine
 10
563.8684822802559
 20
-1996.85
 30
0.0
 11
558.4892542630223
 21
-1996.85
 31
0.0
  0
LINE
  5
98A
330
547
100
AcDbEntity
  8
Visible (ISO)
100
AcDbLine
 10
563.8684822802559
 20
-1987.349999999999
 30
0.0
 11
558.4892542630223
 21
-1987.349999999999
 31
0.0
  0
SPLINE
  5
98B
330
547
100
AcDbEntity
  8
Visible (ISO)
100
AcDbSpline
210
0.0
220
0.0
230
1.0
 70
     8
 71
     3
 72
    10
 73
     6
 74
     0
 42
0.0000000001
 43
0.0000000001
 40
0.667801202024563
 40
0.667801202024563
 40
0.667801202024563
 40
0.667801202024563
 40
0.7972565045619461
 40
0.7972565045619461
 40
0.8679323994344246
 40
0.8679323994344246
 40
0.8679323994344246
 40
0.8679323994344246
 10
9.726156957643981
 20
-1338.289473430689
 30
0.0
 10
7.894376441819986
 20
-1338.289724514439
 30
0.0
 10
5.603344276578353
 20
-1338.290865806399
 30
0.0
 10
5.241688944393898
 20
-1338.290805246882
 30
0.0
 10
5.118673505195146
 20
-1338.289562896904
 30
0.0
 10
5.000000000001818
 20
-1338.290497375872
 30
0.0
  0
LINE
  5
98C
330
547
100
AcDbEntity
  8
Visible (ISO)
100
AcDbLine
 10
4.999999999997271
 20
-1341.865043230588
 30
0.0
 11
5.000000000000908
 21
-1338.290497375872
 31
0.0
  0
SPLINE
  5
98D
330
547
100
AcDbEntity
  8
Visible (ISO)
100
AcDbSpline
210
0.0
220
0.0
230
1.0
 70
     8
 71
     3
 72
     8
 73
     4
 74
     0
 42
0.0000000001
 43
0.0000000001
 40
1.021920917150618
 40
1.021920917150618
 40
1.021920917150618
 40
1.021920917150618
 40
1.423956488223949
 40
1.423956488223949
 40
1.423956488223949
 40
1.423956488223949
 10
4.999999999978171
 20
-1338.290497375828
 30
0.0
 10
5.391995199493066
 20
-1339.128934636039
 30
0.0
 10
5.7830744534358
 20
-1340.003536712292
 30
0.0
 10
6.175033540914228
 20
-1340.843457398482
 30
0.0
  0
SPLINE
  5
98E
330
547
100
AcDbEntity
  8
Visible (ISO)
100
AcDbSpline
210
0.0
220
0.0
230
1.0
 70
     8
 71
     3
 72
    10
 73
     6
 74
     0
 42
0.0000000001
 43
0.0000000001
 40
0.6238504210153331
 40
0.6238504210153331
 40
0.6238504210153331
 40
0.6238504210153331
 40
0.879621795257438
 40
0.879621795257438
 40
0.9239667963720608
 40
0.9239667963720608
 40
0.9239667963720608
 40
0.9239667963720608
 10
-5.000000000002728
 20
-1338.290497375871
 30
0.0
 10
-5.852517540081862
 20
-1338.283784047237
 30
0.0
 10
-6.705178377775155
 20
-1338.290496945151
 30
0.0
 10
-7.705566297791848
 20
-1338.290494915177
 30
0.0
 10
-8.709505902207638
 20
-1338.290102178768
 30
0.0
 10
-9.726158112475786
 20
-1338.289891763341
 30
0.0
  0
LINE
  5
98F
330
547
100
AcDbEntity
  8
Visible (ISO)
100
AcDbLine
 10
-5.000000000002728
 20
-1338.290497375871
 30
0.0
 11
-5.000000000002728
 21
-1341.865043230587
 31
0.0
  0
SPLINE
  5
990
330
547
100
AcDbEntity
  8
Visible (ISO)
100
AcDbSpline
210
0.0
220
0.0
230
1.0
 70
     8
 71
     3
 72
    12
 73
     8
 74
     0
 42
0.0000000001
 43
0.0000000001
 40
0.8610893147998838
 40
0.8610893147998838
 40
0.8610893147998838
 40
0.8610893147998838
 40
1.171112635128324
 40
1.171112635128324
 40
1.886725234772438
 40
1.886725234772438
 40
2.067186920301284
 40
2.067186920301284
 40
2.067186920301284
 40
2.067186920301284
 10
-6.175044276701555
 20
-1340.843477162412
 30
0.0
 10
-5.820350187149415
 20
-1340.08344756855
 30
0.0
 10
-5.338000175610431
 20
-1339.024660418218
 30
0.0
 10
-5.137256705770596
 20
-1338.588651284529
 30
0.0
 10
-5.12081326766838
 20
-1338.553621898243
 30
0.0
 10
-5.03470190527878
 20
-1338.365627800847
 30
0.0
 10
-5.017361947692733
 20
-1338.327634979905
 30
0.0
 10
-5.0
 20
-1338.29049737587
 30
0.0
  0
ARC
  5
991
330
547
100
AcDbEntity
  8
Visible (ISO)
100
AcDbCircle
 10
0.0000000000067749
 20
-1196.599999999999
 30
0.0
 40
57.14999999999993
100
AcDbArc
 50
0.0
 51
180.0
  0
LINE
  5
992
330
547
100
AcDbEntity
  8
Visible (ISO)
100
AcDbLine
 10
57.14999999999964
 20
-1721.501845665951
 30
0.0
 11
57.14999999999964
 21
-2023.849999999996
 31
0.0
  0
LINE
  5
993
330
547
100
AcDbEntity
  8
Visible (ISO)
100
AcDbLine
 10
-57.15000000000054
 20
-1721.501845665951
 30
0.0
 11
-57.15000000000054
 21
-2023.849999999996
 31
0.0
  0
LINE
  5
994
330
547
100
AcDbEntity
  8
Visible (ISO)
100
AcDbLine
 10
57.14999999999964
 20
-1721.501845665951
 30
0.0
 11
57.14999999999964
 21
-1415.812378785498
 31
0.0
  0
LINE
  5
995
330
547
100
AcDbEntity
  8
Visible (ISO)
100
AcDbLine
 10
57.14999999999964
 20
-1371.032117847593
 30
0.0
 11
57.14999999999964
 21
-1196.599999999999
 31
0.0
  0
LINE
  5
996
330
547
100
AcDbEntity
  8
Visible (ISO)
100
AcDbLine
 10
-57.15000000000054
 20
-1196.599999999999
 30
0.0
 11
-57.15000000000054
 21
-1371.032117847591
 31
0.0
  0
LINE
  5
997
330
547
100
AcDbEntity
  8
Visible (ISO)
100
AcDbLine
 10
-57.15000000000237
 20
-1415.808079581883
 30
0.0
 11
-57.15000000000054
 21
-1721.501845665951
 31
0.0
  0
LINE
  5
998
330
547
100
AcDbEntity
  8
Visible (ISO)
100
AcDbLine
 10
-4.000000000001818
 20
-1336.984319343698
 30
0.0
 11
-4.000000000001818
 21
-1343.624543840385
 31
0.0
  0
LINE
  5
999
330
547
100
AcDbEntity
  8
Visible (ISO)
100
AcDbLine
 10
-4.000000000001818
 20
-1343.624543840385
 30
0.0
 11
3.999999999998181
 21
-1343.624543840385
 31
0.0
  0
LINE
  5
99A
330
547
100
AcDbEntity
  8
Visible (ISO)
100
AcDbLine
 10
3.999999999998181
 20
-1343.624543840385
 30
0.0
 11
3.999999999998181
 21
-1336.984319343698
 31
0.0
  0
LINE
  5
99B
330
547
100
AcDbEntity
  8
Visible (ISO)
100
AcDbLine
 10
3.999999999998181
 20
-1336.984319343698
 30
0.0
 11
-4.000000000001818
 21
-1336.984319343698
 31
0.0
  0
LINE
  5
99C
330
547
100
AcDbEntity
  8
Visible (ISO)
100
AcDbLine
 10
-4.000000000001818
 20
-1300.701348628487
 30
0.0
 11
3.999999999998181
 21
-1300.701348628487
 31
0.0
  0
LINE
  5
99D
330
547
100
AcDbEntity
  8
Visible (ISO)
100
AcDbLine
 10
3.999999999998181
 20
-1300.701348628487
 30
0.0
 11
3.999999999998181
 21
-1298.270830446372
 31
0.0
  0
LINE
  5
99E
330
547
100
AcDbEntity
  8
Visible (ISO)
100
AcDbLine
 10
-4.000000000001818
 20
-1298.270830446372
 30
0.0
 11
-4.000000000001818
 21
-1300.701348628487
 31
0.0
  0
LINE
  5
99F
330
547
100
AcDbEntity
  8
Visible (ISO)
100
AcDbLine
 10
3.999999999998181
 20
-1298.270830446372
 30
0.0
 11
-4.000000000001818
 21
-1298.270830446372
 31
0.0
  0
LINE
  5
9A0
330
547
100
AcDbEntity
  8
Visible (ISO)
100
AcDbLine
 10
3.999999999998181
 20
-1300.701348628487
 30
0.0
 11
3.999999999998181
 21
-1336.984319343698
 31
0.0
  0
LINE
  5
9A1
330
547
100
AcDbEntity
  8
Visible (ISO)
100
AcDbLine
 10
-4.000000000001818
 20
-1300.701348628487
 30
0.0
 11
-4.000000000001818
 21
-1336.984319343698
 31
0.0
  0
LINE
  5
9A2
330
547
100
AcDbEntity
  8
Visible (ISO)
100
AcDbLine
 10
3.999999999998181
 20
-1343.624543840385
 30
0.0
 11
3.999999999998181
 21
-1366.777928570532
 31
0.0
  0
LINE
  5
9A3
330
547
100
AcDbEntity
  8
Visible (ISO)
100
AcDbLine
 10
-4.000000000001818
 20
-1343.624543840385
 30
0.0
 11
-4.000000000001818
 21
-1366.777928570532
 31
0.0
  0
LINE
  5
9A4
330
547
100
AcDbEntity
  8
Visible (ISO)
100
AcDbLine
 10
3.999999999998181
 20
-1366.777928570532
 30
0.0
 11
-4.000000000001818
 21
-1366.777928570532
 31
0.0
  0
LINE
  5
9A5
330
547
100
AcDbEntity
  8
Visible (ISO)
100
AcDbLine
 10
-549.9999999999927
 20
-2053.849999999998
 30
0.0
 11
-549.9999999999927
 21
-2053.749999999999
 31
0.0
  0
LINE
  5
9A6
330
547
100
AcDbEntity
  8
Visible (ISO)
100
AcDbLine
 10
550.0000000000055
 20
-2053.849999999998
 30
0.0
 11
-549.9999999999927
 21
-2053.849999999998
 31
0.0
  0
LINE
  5
9A7
330
547
100
AcDbEntity
  8
Visible (ISO)
100
AcDbLine
 10
550.0000000000055
 20
-2053.849999999998
 30
0.0
 11
550.0000000000055
 21
-2053.749999999999
 31
0.0
  0
SPLINE
  5
9A8
330
547
100
AcDbEntity
  8
Visible (ISO)
100
AcDbSpline
210
0.0
220
0.0
230
1.0
 70
    24
 71
     3
 72
    10
 73
     6
 74
     0
 42
0.0000000001
 43
0.0000000001
 40
-0.0849262294128117
 40
-0.0849262294128117
 40
-0.0849262294128117
 40
-0.0849262294128117
 40
-0.059389468769144
 40
-0.059389468769144
 40
0.0
 40
0.0
 40
0.0
 40
0.0
 10
594.2668752897279
 20
-2053.749999999999
 30
0.0
 10
594.3493814198737
 20
-2053.749999999999
 30
0.0
 10
594.4319812740059
 20
-2053.749999999999
 30
0.0
 10
594.7072806652339
 20
-2053.749999999999
 30
0.0
 10
594.8983390171142
 20
-2053.749999999999
 30
0.0
 10
595.0908712114697
 20
-2053.749999999999
 30
0.0
  0
SPLINE
  5
9A9
330
547
100
AcDbEntity
  8
Visible (ISO)
100
AcDbSpline
210
0.0
220
0.0
230
1.0
 70
    24
 71
     3
 72
    10
 73
     6
 74
     0
 42
0.0000000001
 43
0.0000000001
 40
-0.1121172946273215
 40
-0.1121172946273215
 40
-0.1121172946273215
 40
-0.1121172946273215
 40
-0.0558422615139052
 40
-0.0558422615139052
 40
-0.0274810204132397
 40
-0.0274810204132397
 40
-0.0274810204132397
 40
-0.0274810204132397
 10
-595.0908712114577
 20
-2053.749999999999
 30
0.0
 10
-594.9078091958353
 20
-2053.749999999999
 30
0.0
 10
-594.726008443119
 20
-2053.749999999999
 30
0.0
 10
-594.450756929551
 20
-2053.749999999999
 30
0.0
 10
-594.3587579990417
 20
-2053.749999999999
 30
0.0
 10
-594.2668752897097
 20
-2053.749999999999
 30
0.0
  0
SPLINE
  5
9AA
330
547
100
AcDbEntity
  8
Visible (ISO)
100
AcDbSpline
210
0.0
220
0.0
230
1.0
 70
     8
 71
     3
 72
    11
 73
     7
 74
     0
 42
0.0000000001
 43
0.0000000001
 40
0.182828716744049
 40
0.182828716744049
 40
0.182828716744049
 40
0.182828716744049
 40
1.075470664001185
 40
1.075470664001185
 40
1.075470664001185
 40
1.570796326794889
 40
1.570796326794889
 40
1.570796326794889
 40
1.570796326794889
 10
595.0908712114697
 20
-2053.749999999999
 30
0.0
 10
596.8464003744067
 20
-2053.425414199195
 30
0.0
 10
598.4303058525511
 20
-2052.27262689325
 30
0.0
 10
599.2788837782527
 20
-2050.701909194864
 30
0.0
 10
599.7497583823104
 20
-2049.830320326108
 30
0.0
 10
600.0000000000072
 20
-2048.840651325585
 30
0.0
 10
600.0000000000072
 20
-2047.849999999997
 30
0.0
  0
LINE
  5
9AB
330
547
100
AcDbEntity
  8
Visible (ISO)
100
AcDbLine
 10
600.0000000000072
 20
-2047.849999999999
 30
0.0
 11
600.0000000000072
 21
-2029.849999999999
 31
0.0
  0
LINE
  5
9AC
330
547
100
AcDbEntity
  8
Visible (ISO)
100
AcDbLine
 10
597.0000000000045
 20
-2047.849999999999
 30
0.0
 11
597.0000000000045
 21
-2029.849999999999
 31
0.0
  0
LINE
  5
9AD
330
547
100
AcDbEntity
  8
Visible (ISO)
100
AcDbLine
 10
597.0000000000045
 20
-2047.849999999999
 30
0.0
 11
600.0000000000072
 21
-2047.849999999999
 31
0.0
  0
LINE
  5
9AE
330
547
100
AcDbEntity
  8
Visible (ISO)
100
AcDbLine
 10
-596.2928932188059
 20
-2047.849999999999
 30
0.0
 11
-596.2928932188059
 21
-2029.849999999999
 31
0.0
  0
LINE
  5
9AF
330
547
100
AcDbEntity
  8
Visible (ISO)
100
AcDbLine
 10
596.2928932188197
 20
-2029.849999999999
 30
0.0
 11
596.2928932188197
 21
-2047.849999999999
 31
0.0
  0
LINE
  5
9B0
330
547
100
AcDbEntity
  8
Visible (ISO)
100
AcDbLine
 10
-599.9999999999927
 20
-2029.849999999999
 30
0.0
 11
-599.9999999999927
 21
-2047.849999999999
 31
0.0
  0
LINE
  5
9B1
330
547
100
AcDbEntity
  8
Visible (ISO)
100
AcDbLine
 10
-596.9999999999926
 20
-2047.849999999999
 30
0.0
 11
-596.9999999999926
 21
-2029.849999999999
 31
0.0
  0
SPLINE
  5
9B2
330
547
100
AcDbEntity
  8
Visible (ISO)
100
AcDbSpline
210
0.0
220
0.0
230
1.0
 70
     8
 71
     3
 72
    11
 73
     7
 74
     0
 42
0.0000000001
 43
0.0000000001
 40
0.5892120620557081
 40
0.5892120620557081
 40
0.5892120620557081
 40
0.5892120620557081
 40
1.063948950641077
 40
1.063948950641077
 40
1.063948950641077
 40
1.570796326794889
 40
1.570796326794889
 40
1.570796326794889
 40
1.570796326794889
 10
595.6621555982154
 20
-2050.335922286713
 30
0.0
 10
596.0572244113655
 20
-2050.073331921346
 30
0.0
 10
596.3923892316833
 20
-2049.721322761455
 30
0.0
 10
596.6228376216339
 20
-2049.30627017087
 30
0.0
 10
596.868873193326
 20
-2048.86314404867
 30
0.0
 10
597.0000000000045
 20
-2048.356847376152
 30
0.0
 10
597.0000000000045
 20
-2047.849999999997
 30
0.0
  0
SPLINE
  5
9B3
330
547
100
AcDbEntity
  8
Visible (ISO)
100
AcDbSpline
210
0.0
220
0.0
230
1.0
 70
     8
 71
     3
 72
    11
 73
     7
 74
     0
 42
0.0000000001
 43
0.0000000001
 40
0.0
 40
0.0
 40
0.0
 40
0.0
 40
0.8926419472571447
 40
0.8926419472571447
 40
0.8926419472571447
 40
1.387967610050857
 40
1.387967610050857
 40
1.387967610050857
 40
1.387967610050857
 10
596.2928932188197
 20
-2047.849999999997
 30
0.0
 10
595.8585630571506
 20
-2049.635283894512
 30
0.0
 10
595.4242328954842
 20
-2051.402381362186
 30
0.0
 10
594.9899027338142
 20
-2052.52239144221
 30
0.0
 10
594.74889358579
 20
-2053.143883337061
 30
0.0
 10
594.5078844377657
 20
-2053.569887831384
 30
0.0
 10
594.2668752897406
 20
-2053.749999999999
 30
0.0
  0
SPLINE
  5
9B4
330
547
100
AcDbEntity
  8
Visible (ISO)
100
AcDbSpline
210
0.0
220
0.0
230
1.0
 70
     8
 71
     3
 72
    11
 73
     7
 74
     0
 42
0.0000000001
 43
0.0000000001
 40
0.182828716744051
 40
0.182828716744051
 40
0.182828716744051
 40
0.182828716744051
 40
1.075470664001195
 40
1.075470664001195
 40
1.075470664001195
 40
1.570796326794905
 40
1.570796326794905
 40
1.570796326794905
 40
1.570796326794905
 10
-594.2668752897271
 20
-2053.749999999999
 30
0.0
 10
-594.7012054513952
 20
-2053.425414199195
 30
0.0
 10
-595.1355356130642
 20
-2052.27262689325
 30
0.0
 10
-595.5698657747325
 20
-2050.701909194864
 30
0.0
 10
-595.8108749227567
 20
-2049.830320326108
 30
0.0
 10
-596.0518840707817
 20
-2048.840651325585
 30
0.0
 10
-596.2928932188059
 20
-2047.849999999997
 30
0.0
  0
SPLINE
  5
9B5
330
547
100
AcDbEntity
  8
Visible (ISO)
100
AcDbSpline
210
0.0
220
0.0
230
1.0
 70
     8
 71
     3
 72
    11
 73
     7
 74
     0
 42
0.0000000001
 43
0.0000000001
 40
0.0
 40
0.0
 40
0.0
 40
0.0
 40
0.8926419472571389
 40
0.8926419472571389
 40
0.8926419472571389
 40
1.387967610050842
 40
1.387967610050842
 40
1.387967610050842
 40
1.387967610050842
 10
-599.9999999999927
 20
-2047.849999999997
 30
0.0
 10
-599.9999999999927
 20
-2049.635283894512
 30
0.0
 10
-599.1543986304431
 20
-2051.402381362186
 30
0.0
 10
-597.7641410986697
 20
-2052.52239144221
 30
0.0
 10
-596.9926893026868
 20
-2053.143883337061
 30
0.0
 10
-596.0650116816177
 20
-2053.569887831384
 30
0.0
 10
-595.0908712114577
 20
-2053.749999999999
 30
0.0
  0
LINE
  5
9B6
330
547
100
AcDbEntity
  8
Visible (ISO)
100
AcDbLine
 10
-596.9999999999926
 20
-2047.849999999999
 30
0.0
 11
-599.9999999999927
 21
-2047.849999999999
 31
0.0
  0
SPLINE
  5
9B7
330
547
100
AcDbEntity
  8
Visible (ISO)
100
AcDbSpline
210
0.0
220
0.0
230
1.0
 70
     8
 71
     3
 72
    11
 73
     7
 74
     0
 42
0.0000000001
 43
0.0000000001
 40
0.589212062055672
 40
0.589212062055672
 40
0.589212062055672
 40
0.589212062055672
 40
1.063948950641077
 40
1.063948950641077
 40
1.063948950641077
 40
1.570796326794889
 40
1.570796326794889
 40
1.570796326794889
 40
1.570796326794889
 10
-595.6621555982046
 20
-2050.335922286713
 30
0.0
 10
-596.0572244113535
 20
-2050.073331921346
 30
0.0
 10
-596.3923892316687
 20
-2049.721322761455
 30
0.0
 10
-596.6228376216212
 20
-2049.30627017087
 30
0.0
 10
-596.8688731933142
 20
-2048.86314404867
 30
0.0
 10
-596.9999999999926
 20
-2048.356847376152
 30
0.0
 10
-596.9999999999926
 20
-2047.849999999997
 30
0.0
  0
LINE
  5
9B8
330
547
100
AcDbEntity
  8
Visible (ISO)
100
AcDbLine
 10
-594.2668752897271
 20
-2053.749999999999
 30
0.0
 11
594.2668752897406
 21
-2053.749999999999
 31
0.0
  0
LINE
  5
9B9
330
547
100
AcDbEntity
  8
Visible (ISO)
100
AcDbLine
 10
-593.2928932188059
 20
-2023.849999999999
 30
0.0
 11
593.2928932188197
 21
-2023.849999999999
 31
0.0
  0
SPLINE
  5
9BA
330
547
100
AcDbEntity
  8
Visible (ISO)
100
AcDbSpline
210
0.0
220
0.0
230
1.0
 70
     8
 71
     3
 72
    11
 73
     7
 74
     0
 42
0.0000000001
 43
0.0000000001
 40
-0.0000000000000059
 40
-0.0000000000000059
 40
-0.0000000000000059
 40
-0.0000000000000059
 40
0.8504171731878871
 40
0.8504171731878871
 40
0.8504171731878871
 40
1.570796326794896
 40
1.570796326794896
 40
1.570796326794896
 40
1.570796326794896
 10
-596.2928932188059
 20
-2029.849999999999
 30
0.0
 10
-596.2928932188059
 20
-2028.149165653622
 30
0.0
 10
-595.9110380879247
 20
-2026.462654837333
 30
0.0
 10
-595.2719022420751
 20
-2025.340665997811
 30
0.0
 10
-594.7304972067723
 20
-2024.390241434369
 30
0.0
 10
-594.0132723724144
 20
-2023.849999999999
 30
0.0
 10
-593.2928932188059
 20
-2023.849999999999
 30
0.0
  0
SPLINE
  5
9BB
330
547
100
AcDbEntity
  8
Visible (ISO)
100
AcDbSpline
210
0.0
220
0.0
230
1.0
 70
     8
 71
     3
 72
    11
 73
     7
 74
     0
 42
0.0000000001
 43
0.0000000001
 40
-1.570796326794896
 40
-1.570796326794896
 40
-1.570796326794896
 40
-1.570796326794896
 40
-0.7203791536070036
 40
-0.7203791536070036
 40
-0.7203791536070036
 40
0.0000000000000059
 40
0.0000000000000059
 40
0.0000000000000059
 40
0.0000000000000059
 10
593.2928932188197
 20
-2023.849999999999
 30
0.0
 10
594.1433103920079
 20
-2023.849999999999
 30
0.0
 10
594.9865658001507
 20
-2024.61371026176
 30
0.0
 10
595.547560219913
 20
-2025.891981953461
 30
0.0
 10
596.0227725016339
 20
-2026.97479202407
 30
0.0
 10
596.2928932188197
 20
-2028.409241692784
 30
0.0
 10
596.2928932188197
 20
-2029.849999999999
 30
0.0
  0
SPLINE
  5
9BC
330
547
100
AcDbEntity
  8
Visible (ISO)
100
AcDbSpline
210
0.0
220
0.0
230
1.0
 70
     8
 71
     3
 72
    11
 73
     7
 74
     0
 42
0.0000000001
 43
0.0000000001
 40
-1.570796326794896
 40
-1.570796326794896
 40
-1.570796326794896
 40
-1.570796326794896
 40
-0.7203791536070041
 40
-0.7203791536070041
 40
-0.7203791536070041
 40
0.0000000000000059
 40
0.0000000000000059
 40
0.0000000000000059
 40
0.0000000000000059
 10
-593.9999999999927
 20
-2023.849999999999
 30
0.0
 10
-595.7008343463685
 20
-2023.849999999999
 30
0.0
 10
-597.3873451626603
 20
-2024.61371026176
 30
0.0
 10
-598.5093340021802
 20
-2025.891981953461
 30
0.0
 10
-599.4597585656229
 20
-2026.97479202407
 30
0.0
 10
-599.9999999999927
 20
-2028.409241692784
 30
0.0
 10
-599.9999999999927
 20
-2029.849999999999
 30
0.0
  0
LINE
  5
9BD
330
547
100
AcDbEntity
  8
Visible (ISO)
100
AcDbLine
 10
-593.2928932188059
 20
-2023.849999999999
 30
0.0
 11
-593.9999999999927
 21
-2023.849999999999
 31
0.0
  0
LINE
  5
9BE
330
547
100
AcDbEntity
  8
Visible (ISO)
100
AcDbLine
 10
-593.9999999999927
 20
-2024.019048105152
 30
0.0
 11
-593.9999999999927
 21
-2023.849999999999
 31
0.0
  0
ARC
  5
9BF
330
547
100
AcDbEntity
  8
Visible (ISO)
100
AcDbCircle
 10
-593.9999999999845
 20
-2029.849999999999
 30
0.0
 40
2.999999999999998
100
AcDbArc
 50
134.2668205322345
 51
180.0
  0
SPLINE
  5
9C0
330
547
100
AcDbEntity
  8
Visible (ISO)
100
AcDbSpline
210
0.0
220
0.0
230
1.0
 70
     8
 71
     3
 72
    11
 73
     7
 74
     0
 42
0.0000000001
 43
0.0000000001
 40
-0.0000000000000059
 40
-0.0000000000000059
 40
-0.0000000000000059
 40
-0.0000000000000059
 40
0.8504171731878866
 40
0.8504171731878866
 40
0.8504171731878866
 40
1.570796326794896
 40
1.570796326794896
 40
1.570796326794896
 40
1.570796326794896
 10
600.0000000000072
 20
-2029.849999999999
 30
0.0
 10
600.0000000000072
 20
-2028.149165653622
 30
0.0
 10
599.2362897382434
 20
-2026.462654837333
 30
0.0
 10
597.9580180465427
 20
-2025.340665997811
 30
0.0
 10
596.8752079759332
 20
-2024.390241434369
 30
0.0
 10
595.4407583072216
 20
-2023.849999999999
 30
0.0
 10
594.0000000000073
 20
-2023.849999999999
 30
0.0
  0
LINE
  5
9C1
330
547
100
AcDbEntity
  8
Visible (ISO)
100
AcDbLine
 10
594.0000000000073
 20
-2024.019048105152
 30
0.0
 11
594.0000000000073
 21
-2023.849999999999
 31
0.0
  0
ARC
  5
9C2
330
547
100
AcDbEntity
  8
Visible (ISO)
100
AcDbCircle
 10
593.9999999999972
 20
-2029.849999999999
 30
0.0
 40
3.00000000000002
100
AcDbArc
 50
0.0
 51
45.7331794677655
  0
LINE
  5
9C3
330
547
100
AcDbEntity
  8
Visible (ISO)
100
AcDbLine
 10
594.0000000000073
 20
-2023.849999999999
 30
0.0
 11
593.2928932188197
 21
-2023.849999999999
 31
0.0
  0
ARC
  5
9C4
330
547
100
AcDbEntity
  8
Visible (ISO)
100
AcDbCircle
 10
0.0000000000009095
 20
-2431.620577302116
 30
0.0
 40
245.0
100
AcDbArc
 50
111.55208888723
 51
68.44791111277003
  0
CIRCLE
  5
9C5
330
547
100
AcDbEntity
  8
Visible (ISO)
100
AcDbCircle
 10
0.0000000000009095
 20
-2431.620577302116
 30
0.0
 40
225.0
  0
ARC
  5
9C6
330
547
100
AcDbEntity
  8
Visible (ISO)
100
AcDbCircle
 10
0.0000000000009095
 20
-2431.620577302116
 30
0.0
 40
244.9999999999998
100
AcDbArc
 50
68.44791111277003
 51
111.55208888723
  0
LINE
  5
9C7
330
547
100
AcDbEntity
  8
Visible (ISO)
100
AcDbLine
 10
90.0000000000009
 20
-2063.749999999998
 30
0.0
 11
90.0000000000009
 21
-2203.749999999998
 31
0.0
  0
LINE
  5
9C8
330
547
100
AcDbEntity
  8
Visible (ISO)
100
AcDbLine
 10
-90.0
 20
-2203.749999999998
 30
0.0
 11
-90.0
 21
-2063.749999999998
 31
0.0
  0
LINE
  5
9C9
330
547
100
AcDbEntity
  8
Visible (ISO)
100
AcDbLine
 10
-90.0
 20
-2053.849999999998
 30
0.0
 11
-90.0
 21
-2063.749999999998
 31
0.0
  0
LINE
  5
9CA
330
547
100
AcDbEntity
  8
Visible (ISO)
100
AcDbLine
 10
90.0000000000009
 20
-2063.749999999998
 30
0.0
 11
90.0000000000009
 21
-2053.849999999998
 31
0.0
  0
SPLINE
  5
9CB
330
547
100
AcDbEntity
  8
Visible (ISO)
100
AcDbSpline
210
0.0
220
0.0
230
1.0
 70
     8
 71
     3
 72
    14
 73
    10
 74
     0
 42
0.0000000001
 43
0.0000000001
 40
3.160178086772181
 40
3.160178086772181
 40
3.160178086772181
 40
3.160178086772181
 40
3.232954389081711
 40
3.232954389081711
 40
3.359580109930563
 40
3.359580109930563
 40
3.486205830779412
 40
3.486205830779412
 40
3.612831551628261
 40
3.612831551628261
 40
3.612831551628261
 40
3.612831551628261
 10
-244.5885483357033
 20
-2417.427550034043
 30
0.0
 10
-244.4418856006341
 20
-2409.69558662525
 30
0.0
 10
-244.0079796132395
 20
-2401.968875609429
 30
0.0
 10
-242.0352563733914
 20
-2380.868809274883
 30
0.0
 10
-239.9156708992023
 20
-2367.54782498036
 30
0.0
 10
-233.9770092067529
 20
-2341.27580472658
 30
0.0
 10
-230.1579608548436
 20
-2328.324884194012
 30
0.0
 10
-220.8820300668995
 20
-2303.000820157825
 30
0.0
 10
-215.4251906903746
 20
-2290.627786810674
 30
0.0
 10
-209.1934382407544
 20
-2278.642814942195
 30
0.0
  0
LINE
  5
9CC
330
547
100
AcDbEntity
  8
Visible (ISO)
100
AcDbLine
 10
-209.1934382407572
 20
-2278.642814942196
 30
0.0
 11
-99.87989671246578
 21
-2068.409861908243
 31
0.0
  0
LINE
  5
9CD
330
547
100
AcDbEntity
  8
Visible (ISO)
100
AcDbLine
 10
-190.7714517668155
 20
-2277.895975527442
 30
0.0
 11
-90.0
 21
-2084.091259384625
 31
0.0
  0
SPLINE
  5
9CE
330
547
100
AcDbEntity
  8
Visible (ISO)
100
AcDbSpline
210
0.0
220
0.0
230
1.0
 70
     8
 71
     3
 72
    14
 73
    10
 74
     0
 42
0.0000000001
 43
0.0000000001
 40
3.612831551628254
 40
3.612831551628254
 40
3.612831551628254
 40
3.612831551628254
 40
3.83274303737954
 40
3.83274303737954
 40
4.052654523130827
 40
4.052654523130827
 40
4.272566008882114
 40
4.272566008882114
 40
4.362114482389015
 40
4.362114482389015
 40
4.362114482389015
 40
4.362114482389015
 10
-99.87989671246578
 20
-2068.409861908245
 30
0.0
 10
-99.27336075422864
 20
-2067.243365572665
 30
0.0
 10
-98.53695638923365
 20
-2066.145520186168
 30
0.0
 10
-96.84312442442024
 20
-2064.139133053282
 30
0.0
 10
-95.88580848622131
 20
-2063.23063811885
 30
0.0
 10
-93.79851719100406
 20
-2061.644072317805
 30
0.0
 10
-92.66863949640356
 20
-2060.966012444039
 30
0.0
 10
-90.99560251821094
 20
-2060.194545707717
 30
0.0
 10
-90.50171514970225
 20
-2059.992765550867
 30
0.0
 10
-90.0
 20
-2059.813148868519
 30
0.0
  0
SPLINE
  5
9CF
330
547
100
AcDbEntity
  8
Visible (ISO)
100
AcDbSpline
210
0.0
220
0.0
230
1.0
 70
     8
 71
     3
 72
    14
 73
    10
 74
     0
 42
0.0000000001
 43
0.0000000001
 40
5.811946409141117
 40
5.811946409141117
 40
5.811946409141117
 40
5.811946409141117
 40
5.938572129989966
 40
5.938572129989966
 40
6.065197850838817
 40
6.065197850838817
 40
6.191823571687668
 40
6.191823571687668
 40
6.264599873997265
 40
6.264599873997265
 40
6.264599873997265
 40
6.264599873997265
 10
209.1934382407589
 20
-2278.642814942195
 30
0.0
 10
215.4251906903773
 20
-2290.627786810674
 30
0.0
 10
220.882030066904
 20
-2303.000820157826
 30
0.0
 10
230.1579608548445
 20
-2328.324884194012
 30
0.0
 10
233.9770092067538
 20
-2341.27580472658
 30
0.0
 10
239.9156708992041
 20
-2367.54782498036
 30
0.0
 10
242.0352563733932
 20
-2380.868809274883
 30
0.0
 10
244.0079796132395
 20
-2401.968875609436
 30
0.0
 10
244.4418856006341
 20
-2409.695586625264
 30
0.0
 10
244.588548335707
 20
-2417.427550034063
 30
0.0
  0
LINE
  5
9D0
330
547
100
AcDbEntity
  8
Visible (ISO)
100
AcDbLine
 10
99.8798967124685
 20
-2068.409861908243
 30
0.0
 11
209.1934382407562
 21
-2278.642814942195
 31
0.0
  0
LINE
  5
9D1
330
547
100
AcDbEntity
  8
Visible (ISO)
100
AcDbLine
 10
90.0000000000009
 20
-2084.091259384625
 30
0.0
 11
190.77145176682
 21
-2277.895975527445
 31
0.0
  0
SPLINE
  5
9D2
330
547
100
AcDbEntity
  8
Visible (ISO)
100
AcDbSpline
210
0.0
220
0.0
230
1.0
 70
     8
 71
     3
 72
    14
 73
    10
 74
     0
 42
0.0000000001
 43
0.0000000001
 40
5.062663478380367
 40
5.062663478380367
 40
5.062663478380367
 40
5.062663478380367
 40
5.152211951887257
 40
5.152211951887257
 40
5.372123437638541
 40
5.372123437638541
 40
5.592034923389824
 40
5.592034923389824
 40
5.811946409141111
 40
5.811946409141111
 40
5.811946409141111
 40
5.811946409141111
 10
90.0000000000009
 20
-2059.813148868519
 30
0.0
 10
90.50171514970406
 20
-2059.992765550868
 30
0.0
 10
90.99560251821277
 20
-2060.194545707718
 30
0.0
 10
92.66863949640628
 20
-2060.966012444039
 30
0.0
 10
93.79851719100406
 20
-2061.644072317805
 30
0.0
 10
95.88580848622314
 20
-2063.23063811885
 30
0.0
 10
96.84312442442205
 20
-2064.139133053281
 30
0.0
 10
98.53695638923547
 20
-2066.145520186168
 30
0.0
 10
99.27336075423044
 20
-2067.243365572666
 30
0.0
 10
99.8798967124685
 20
-2068.409861908243
 30
0.0
  0
LINE
  5
9D3
330
547
100
AcDbEntity
  8
0
100
AcDbLine
 10
37.74193362415008
 20
-1393.867927655658
 30
0.0
 11
558.9586452437989
 21
-1983.200962420397
 31
0.0
  0
LINE
  5
9D4
330
547
100
AcDbEntity
  8
0
100
AcDbLine
 10
579.883356175842
 20
-1961.789246861797
 30
0.0
 11
57.7142538951648
 21
-1371.482521181973
 31
0.0
  0
LINE
  5
9D5
330
547
100
AcDbEntity
  8
0
100
AcDbLine
 10
-37.74193362415463
 20
-1393.867927655658
 30
0.0
 11
-558.8270212202296
 21
-1982.936707973529
 31
0.0
  0
LINE
  5
9D6
330
547
100
AcDbEntity
  8
0
100
AcDbLine
 10
-581.4819656508205
 20
-1964.119454663413
 30
0.0
 11
-57.71425400559746
 21
-1371.482521280499
 31
0.0
  0
ENDBLK
  5
549
330
547
100
AcDbEntity
  8
0
100
AcDbBlockEnd
  0
ENDSEC
  0
SECTION
  2
ENTITIES
  0
INSERT
  5
6A4
330
6C
100
AcDbEntity
  8
0
100
AcDbBlockReference
  2
2010M_Minikosz-do-koszykowki-z-tablica-laminatowa
 10
7567.931311208386
 20
5098.3193396543
 30
0.0
  0
ENDSEC
  0
SECTION
  2
OBJECTS
  0
DICTIONARY
  5
C
330
0
100
AcDbDictionary
281
     1
  3
ACAD_COLOR
350
63
  3
ACAD_GROUP
350
D
  3
ACAD_LAYOUT
350
62
  3
ACAD_MATERIAL
350
10
  3
ACAD_MLEADERSTYLE
350
66
  3
ACAD_MLINESTYLE
350
5F
  3
ACAD_PLOTSETTINGS
350
61
  3
ACAD_PLOTSTYLENAME
350
E
  3
ACAD_SCALELIST
350
42
  3
ACAD_TABLESTYLE
350
64
  3
ACAD_VISUALSTYLE
350
29
  3
ACDB_RECOMPOSE_DATA
350
9E8
  3
AcDbVariableDictionary
350
442
  3
DWGPROPS
350
9E9
  0
DICTIONARY
  5
403
330
8
100
AcDbDictionary
280
     1
281
     1
  0
DICTIONARY
  5
4E9
330
6C
100
AcDbDictionary
280
     1
281
     1
  3
ACAD_SORTENTS
360
4EA
  0
DICTIONARY
  5
9D8
330
547
100
AcDbDictionary
280
     1
281
     1
  0
DICTIONARY
  5
63
102
{ACAD_REACTORS
330
C
102
}
330
C
100
AcDbDictionary
281
     1
  0
DICTIONARY
  5
D
102
{ACAD_REACTORS
330
C
102
}
330
C
100
AcDbDictionary
281
     1
  0
DICTIONARY
  5
62
102
{ACAD_REACTORS
330
C
102
}
330
C
100
AcDbDictionary
281
     1
  3
Layout1
350
6B
  3
Layout2
350
73
  3
Model
350
6F
  0
DICTIONARY
  5
10
102
{ACAD_REACTORS
330
C
102
}
330
C
100
AcDbDictionary
281
     1
  3
ByBlock
350
19
  3
ByLayer
350
11
  3
Global
350
21
  0
DICTIONARY
  5
66
102
{ACAD_REACTORS
330
C
102
}
330
C
100
AcDbDictionary
281
     1
  3
Standard
350
67
  0
DICTIONARY
  5
5F
102
{ACAD_REACTORS
330
C
102
}
330
C
100
AcDbDictionary
281
     1
  3
Standard
350
60
  0
DICTIONARY
  5
61
102
{ACAD_REACTORS
330
C
102
}
330
C
100
AcDbDictionary
281
     1
  0
ACDBDICTIONARYWDFLT
  5
E
102
{ACAD_REACTORS
330
C
102
}
330
C
100
AcDbDictionary
281
     1
  3
Normal
350
F
100
AcDbDictionaryWithDefault
340
F
  0
DICTIONARY
  5
42
102
{ACAD_REACTORS
330
C
102
}
330
C
100
AcDbDictionary
281
     1
  3
A0
350
43
  3
A1
350
44
  3
A2
350
45
  3
A3
350
46
  3
A4
350
47
  3
A5
350
48
  3
A6
350
49
  3
A7
350
4A
  3
A8
350
4B
  3
A9
350
4C
  3
B0
350
4D
  3
B1
350
4E
  3
B2
350
4F
  3
B3
350
50
  3
B4
350
51
  3
B5
350
52
  3
B6
350
53
  0
DICTIONARY
  5
64
102
{ACAD_REACTORS
330
C
102
}
330
C
100
AcDbDictionary
281
     1
  3
Standard
350
65
  0
DICTIONARY
  5
29
102
{ACAD_REACTORS
330
C
102
}
330
C
100
AcDbDictionary
281
     1
  3
2dWireframe
350
2F
  3
Basic
350
2E
  3
Brighten
350
35
  3
ColorChange
350
39
  3
Conceptual
350
32
  3
Dim
350
34
  3
EdgeColorOff
350
41
  3
Facepattern
350
38
  3
Flat
350
2A
  3
FlatWithEdges
350
2B
  3
Gouraud
350
2C
  3
GouraudWithEdges
350
2D
  3
Hidden
350
31
  3
JitterOff
350
3F
  3
Linepattern
350
37
  3
OverhangOff
350
40
  3
Realistic
350
33
  3
Shaded
350
3E
  3
Shaded with edges
350
3D
  3
Shades of Gray
350
3A
  3
Sketchy
350
3B
  3
Thicken
350
36
  3
Wireframe
350
30
  3
X-Ray
350
3C
  0
XRECORD
  5
9E8
102
{ACAD_REACTORS
330
C
102
}
330
C
100
AcDbXrecord
280
     1
 90
        1
330
65
  0
DICTIONARY
  5
442
102
{ACAD_REACTORS
330
C
102
}
330
C
100
AcDbDictionary
281
     1
  3
CANNOSCALE
350
446
  3
CMLEADERSTYLE
350
444
  3
CTABLESTYLE
350
443
  3
DIMASSOC
350
44D
  3
HIDETEXT
350
44C
  3
INDEXCTL
350
44B
  3
LAYEREVAL
350
448
  3
LAYERNOTIFY
350
449
  3
LIGHTINGUNITS
350
447
  3
MSLTSCALE
350
445
  3
SORTENTS
350
44A
  3
XCLIPFRAME
350
9E6
  0
XRECORD
  5
9E9
102
{ACAD_REACTORS
330
C
102
}
330
C
100
AcDbXrecord
280
     1
  1
DWGPROPS COOKIE
  2

  3

  4
Maruszak Marcin
  6

  7

  8
Natalia
  9
v1
300
Menadżer=
301
Firma=Muller Jelcz-Laskowice Sp.z o.o.
302
Kategoria=
303
Numer części=
304
Opis=
305
Projekt=
306
Projektant=Maruszak Marcin
307
Inżynier=Maruszak Marcin
308
Zatwierdził=Ośkiewicz Ryszard
309
Centrum kosztów=
 40
0.0075247453703704
 41
2458683.333915486
 42
2458683.397494989
  1
WWW.MULLER.COM.PL
 90
       19
300
Dostawca=
300
Stan użytkownika=
300
Stan projektu=PracaWToku
300
Sprawdził=
300
Zatwierdził konstrukcję=
300
Zatwierdził do produkcji=
300
Kolor=szary
300
Stanowisko=Ploter
300
mat.=
  0
SORTENTSTABLE
  5
4EA
102
{ACAD_REACTORS
330
4E9
102
}
330
4E9
100
AcDbSortentsTable
330
6C
331
6A4
  5
6A4
  0
LAYOUT
  5
6B
102
{ACAD_XDICTIONARY
360
A1B
102
}
102
{ACAD_REACTORS
330
62
102
}
330
62
100
AcDbPlotSettings
  1

  2

  4

  6

 40
0.0
 41
0.0
 42
0.0
 43
0.0
 44
0.0
 45
0.0
 46
0.0
 47
0.0
 48
0.0
 49
0.0
140
0.0
141
0.0
142
1.0
143
1.0
 70
   688
 72
     0
 73
     0
 74
     5
  7

 75
    16
147
1.0
148
0.0
149
0.0
100
AcDbLayout
  1
Layout1
 70
     1
 71
     1
 10
0.0
 20
0.0
 11
8910.0
 21
6300.0
 12
0.0
 22
0.0
 32
0.0
 14
0.0
 24
0.0
 34
0.0
 15
8910.0
 25
6300.0
 35
0.0
146
0.0
 13
0.0
 23
0.0
 33
0.0
 16
1.0
 26
0.0
 36
0.0
 17
0.0
 27
1.0
 37
0.0
 76
     0
330
68
  0
LAYOUT
  5
73
102
{ACAD_XDICTIONARY
360
A1F
102
}
102
{ACAD_REACTORS
330
62
102
}
330
62
100
AcDbPlotSettings
  1

  2

  4

  6

 40
0.0
 41
0.0
 42
0.0
 43
0.0
 44
0.0
 45
0.0
 46
0.0
 47
0.0
 48
0.0
 49
0.0
140
0.0
141
0.0
142
1.0
143
1.0
 70
   688
 72
     0
 73
     0
 74
     5
  7

 75
    16
147
1.0
148
0.0
149
0.0
100
AcDbLayout
  1
Layout2
 70
     1
 71
     2
 10
0.0
 20
0.0
 11
12.0
 21
9.0
 12
0.0
 22
0.0
 32
0.0
 14
0.0
 24
0.0
 34
0.0
 15
0.0
 25
0.0
 35
0.0
146
0.0
 13
0.0
 23
0.0
 33
0.0
 16
1.0
 26
0.0
 36
0.0
 17
0.0
 27
1.0
 37
0.0
 76
     0
330
70
  0
LAYOUT
  5
6F
102
{ACAD_XDICTIONARY
360
A1D
102
}
102
{ACAD_REACTORS
330
62
102
}
330
62
100
AcDbPlotSettings
  1

  2

  4

  6

 40
0.0
 41
0.0
 42
0.0
 43
0.0
 44
0.0
 45
0.0
 46
0.0
 47
0.0
 48
0.0
 49
0.0
140
0.0
141
0.0
142
1.0
143
1.0
 70
  1712
 72
     0
 73
     0
 74
     0
  7

 75
     0
147
1.0
148
0.0
149
0.0
100
AcDbLayout
  1
Model
 70
     1
 71
     0
 10
0.0
 20
0.0
 11
12.0
 21
9.0
 12
0.0
 22
0.0
 32
0.0
 14
0.0
 24
0.0
 34
0.0
 15
0.0
 25
0.0
 35
0.0
146
0.0
 13
0.0
 23
0.0
 33
0.0
 16
1.0
 26
0.0
 36
0.0
 17
0.0
 27
1.0
 37
0.0
 76
     0
330
6C
331
57
  0
MATERIAL
  5
19
102
{ACAD_XDICTIONARY
360
1A
102
}
102
{ACAD_REACTORS
330
10
102
}
330
10
100
AcDbMaterial
  1
ByBlock
 72
     0
 43
0.0208333333333333
 43
0.0
 43
0.0
 43
0.0
 43
0.0
 43
0.0208333333333333
 43
0.0
 43
0.0
 43
0.0
 43
0.0
 43
1.0
 43
0.0
 43
0.0
 43
0.0
 43
0.0
 43
1.0
 77
     0
 47
0.0208333333333333
 47
0.0
 47
0.0
 47
0.0
 47
0.0
 47
0.0208333333333333
 47
0.0
 47
0.0
 47
0.0
 47
0.0
 47
1.0
 47
0.0
 47
0.0
 47
0.0
 47
0.0
 47
1.0
171
     0
 49
0.0208333333333333
 49
0.0
 49
0.0
 49
0.0
 49
0.0
 49
0.0208333333333333
 49
0.0
 49
0.0
 49
0.0
 49
0.0
 49
1.0
 49
0.0
 49
0.0
 49
0.0
 49
0.0
 49
1.0
175
     0
142
0.0208333333333333
142
0.0
142
0.0
142
0.0
142
0.0
142
0.0208333333333333
142
0.0
142
0.0
142
0.0
142
0.0
142
1.0
142
0.0
142
0.0
142
0.0
142
0.0
142
1.0
179
     0
144
0.0208333333333333
144
0.0
144
0.0
144
0.0
144
0.0
144
0.0208333333333333
144
0.0
144
0.0
144
0.0
144
0.0
144
1.0
144
0.0
144
0.0
144
0.0
144
0.0
144
1.0
147
0.0208333333333333
147
0.0
147
0.0
147
0.0
147
0.0
147
0.0208333333333333
147
0.0
147
0.0
147
0.0
147
0.0
147
1.0
147
0.0
147
0.0
147
0.0
147
0.0
147
1.0
  0
MATERIAL
  5
11
102
{ACAD_XDICTIONARY
360
12
102
}
102
{ACAD_REACTORS
330
10
102
}
330
10
100
AcDbMaterial
  1
ByLayer
 72
     0
 43
0.0208333333333333
 43
0.0
 43
0.0
 43
0.0
 43
0.0
 43
0.0208333333333333
 43
0.0
 43
0.0
 43
0.0
 43
0.0
 43
1.0
 43
0.0
 43
0.0
 43
0.0
 43
0.0
 43
1.0
 77
     0
 47
0.0208333333333333
 47
0.0
 47
0.0
 47
0.0
 47
0.0
 47
0.0208333333333333
 47
0.0
 47
0.0
 47
0.0
 47
0.0
 47
1.0
 47
0.0
 47
0.0
 47
0.0
 47
0.0
 47
1.0
171
     0
 49
0.0208333333333333
 49
0.0
 49
0.0
 49
0.0
 49
0.0
 49
0.0208333333333333
 49
0.0
 49
0.0
 49
0.0
 49
0.0
 49
1.0
 49
0.0
 49
0.0
 49
0.0
 49
0.0
 49
1.0
175
     0
142
0.0208333333333333
142
0.0
142
0.0
142
0.0
142
0.0
142
0.0208333333333333
142
0.0
142
0.0
142
0.0
142
0.0
142
1.0
142
0.0
142
0.0
142
0.0
142
0.0
142
1.0
179
     0
144
0.0208333333333333
144
0.0
144
0.0
144
0.0
144
0.0
144
0.0208333333333333
144
0.0
144
0.0
144
0.0
144
0.0
144
1.0
144
0.0
144
0.0
144
0.0
144
0.0
144
1.0
147
0.0208333333333333
147
0.0
147
0.0
147
0.0
147
0.0
147
0.0208333333333333
147
0.0
147
0.0
147
0.0
147
0.0
147
1.0
147
0.0
147
0.0
147
0.0
147
0.0
147
1.0
  0
MATERIAL
  5
21
102
{ACAD_XDICTIONARY
360
22
102
}
102
{ACAD_REACTORS
330
10
102
}
330
10
100
AcDbMaterial
  1
Global
 72
     0
 43
0.0208333333333333
 43
0.0
 43
0.0
 43
0.0
 43
0.0
 43
0.0208333333333333
 43
0.0
 43
0.0
 43
0.0
 43
0.0
 43
1.0
 43
0.0
 43
0.0
 43
0.0
 43
0.0
 43
1.0
 77
     0
 47
0.0208333333333333
 47
0.0
 47
0.0
 47
0.0
 47
0.0
 47
0.0208333333333333
 47
0.0
 47
0.0
 47
0.0
 47
0.0
 47
1.0
 47
0.0
 47
0.0
 47
0.0
 47
0.0
 47
1.0
171
     0
 49
0.0208333333333333
 49
0.0
 49
0.0
 49
0.0
 49
0.0
 49
0.0208333333333333
 49
0.0
 49
0.0
 49
0.0
 49
0.0
 49
1.0
 49
0.0
 49
0.0
 49
0.0
 49
0.0
 49
1.0
175
     0
142
0.0208333333333333
142
0.0
142
0.0
142
0.0
142
0.0
142
0.0208333333333333
142
0.0
142
0.0
142
0.0
142
0.0
142
1.0
142
0.0
142
0.0
142
0.0
142
0.0
142
1.0
179
     0
144
0.0208333333333333
144
0.0
144
0.0
144
0.0
144
0.0
144
0.0208333333333333
144
0.0
144
0.0
144
0.0
144
0.0
144
1.0
144
0.0
144
0.0
144
0.0
144
0.0
144
1.0
147
0.0208333333333333
147
0.0
147
0.0
147
0.0
147
0.0
147
0.0208333333333333
147
0.0
147
0.0
147
0.0
147
0.0
147
1.0
147
0.0
147
0.0
147
0.0
147
0.0
147
1.0
  0
MLEADERSTYLE
  5
67
102
{ACAD_REACTORS
330
66
102
}
330
66
100
AcDbMLeaderStyle
170
     2
171
     1
172
     0
 90
        2
 40
0.0
 41
0.0
173
     1
 91
-1056964608
340
5B
 92
       -2
290
     1
 42
0.09
291
     1
 43
0.36
  3
Standard
 44
0.18
300

342
55
174
     1
178
     6
175
     1
176
     0
 93
-1056964608
 45
0.18
292
     0
297
     0
 46
0.18
 94
-1056964608
 47
1.0
 49
1.0
140
1.0
293
     1
141
0.0
294
     1
177
     0
142
1.0
295
     0
296
     0
143
0.125
1001
ACAD_MLEADERVER
1070
     2
  0
MLINESTYLE
  5
60
102
{ACAD_REACTORS
330
5F
102
}
330
5F
100
AcDbMlineStyle
  2
STANDARD
 70
     0
  3

 62
   256
 51
90.0
 52
90.0
 71
     2
 49
0.5
 62
   256
  6
BYLAYER
 49
-0.5
 62
   256
  6
BYLAYER
  0
ACDBPLACEHOLDER
  5
F
102
{ACAD_REACTORS
330
E
102
}
330
E
  0
SCALE
  5
43
102
{ACAD_REACTORS
330
42
102
}
330
42
100
AcDbScale
 70
     0
300
1:1
140
1.0
141
1.0
290
     1
  0
SCALE
  5
44
102
{ACAD_REACTORS
330
42
102
}
330
42
100
AcDbScale
 70
     0
300
1/128" = 1'-0"
140
0.0078125
141
12.0
290
     0
  0
SCALE
  5
45
102
{ACAD_REACTORS
330
42
102
}
330
42
100
AcDbScale
 70
     0
300
1/64" = 1'-0"
140
0.015625
141
12.0
290
     0
  0
SCALE
  5
46
102
{ACAD_REACTORS
330
42
102
}
330
42
100
AcDbScale
 70
     0
300
1/32" = 1'-0"
140
0.03125
141
12.0
290
     0
  0
SCALE
  5
47
102
{ACAD_REACTORS
330
42
102
}
330
42
100
AcDbScale
 70
     0
300
1/16" = 1'-0"
140
0.0625
141
12.0
290
     0
  0
SCALE
  5
48
102
{ACAD_REACTORS
330
42
102
}
330
42
100
AcDbScale
 70
     0
300
3/32" = 1'-0"
140
0.09375
141
12.0
290
     0
  0
SCALE
  5
49
102
{ACAD_REACTORS
330
42
102
}
330
42
100
AcDbScale
 70
     0
300
1/8" = 1'-0"
140
0.125
141
12.0
290
     0
  0
SCALE
  5
4A
102
{ACAD_REACTORS
330
42
102
}
330
42
100
AcDbScale
 70
     0
300
3/16" = 1'-0"
140
0.1875
141
12.0
290
     0
  0
SCALE
  5
4B
102
{ACAD_REACTORS
330
42
102
}
330
42
100
AcDbScale
 70
     0
300
1/4" = 1'-0"
140
0.25
141
12.0
290
     0
  0
SCALE
  5
4C
102
{ACAD_REACTORS
330
42
102
}
330
42
100
AcDbScale
 70
     0
300
3/8" = 1'-0"
140
0.375
141
12.0
290
     0
  0
SCALE
  5
4D
102
{ACAD_REACTORS
330
42
102
}
330
42
100
AcDbScale
 70
     0
300
1/2" = 1'-0"
140
0.5
141
12.0
290
     0
  0
SCALE
  5
4E
102
{ACAD_REACTORS
330
42
102
}
330
42
100
AcDbScale
 70
     0
300
3/4" = 1'-0"
140
0.75
141
12.0
290
     0
  0
SCALE
  5
4F
102
{ACAD_REACTORS
330
42
102
}
330
42
100
AcDbScale
 70
     0
300
1" = 1'-0"
140
1.0
141
12.0
290
     0
  0
SCALE
  5
50
102
{ACAD_REACTORS
330
42
102
}
330
42
100
AcDbScale
 70
     0
300
1-1/2" = 1'-0"
140
1.5
141
12.0
290
     0
  0
SCALE
  5
51
102
{ACAD_REACTORS
330
42
102
}
330
42
100
AcDbScale
 70
     0
300
3" = 1'-0"
140
3.0
141
12.0
290
     0
  0
SCALE
  5
52
102
{ACAD_REACTORS
330
42
102
}
330
42
100
AcDbScale
 70
     0
300
6" = 1'-0"
140
6.0
141
12.0
290
     0
  0
SCALE
  5
53
102
{ACAD_REACTORS
330
42
102
}
330
42
100
AcDbScale
 70
     0
300
1'-0" = 1'-0"
140
12.0
141
12.0
290
     0
  0
TABLESTYLE
  5
65
102
{ACAD_XDICTIONARY
360
3C3
102
}
102
{ACAD_REACTORS
330
64
102
}
330
64
100
AcDbTableStyle
  3
Standard
 70
     0
 71
     0
 40
0.06
 41
0.06
280
     0
281
     0
  7
Standard
140
0.18
170
     2
 62
     0
 63
     7
283
     0
274
    -2
284
     1
 64
     0
275
    -2
285
     1
 65
     0
276
    -2
286
     1
 66
     0
277
    -2
287
     1
 67
     0
278
    -2
288
     1
 68
     0
279
    -2
289
     1
 69
     0
  7
Standard
140
0.25
170
     5
 62
     0
 63
     7
283
     0
274
    -2
284
     1
 64
     0
275
    -2
285
     1
 65
     0
276
    -2
286
     1
 66
     0
277
    -2
287
     1
 67
     0
278
    -2
288
     1
 68
     0
279
    -2
289
     1
 69
     0
  7
Standard
140
0.18
170
     5
 62
     0
 63
     7
283
     0
274
    -2
284
     1
 64
     0
275
    -2
285
     1
 65
     0
276
    -2
286
     1
 66
     0
277
    -2
287
     1
 67
     0
278
    -2
288
     1
 68
     0
279
    -2
289
     1
 69
     0
  0
VISUALSTYLE
  5
2F
102
{ACAD_XDICTIONARY
360
9F4
102
}
102
{ACAD_REACTORS
330
29
102
}
330
29
100
AcDbVisualStyle
  2

 70
     4
 71
     0
 72
     2
 73
     0
 90
        0
 40
-0.6
 41
-30.0
 62
     5
 63
     7
 74
     1
 91
        4
 64
     7
 65
   257
 75
     1
175
     1
 42
1.0
 92
        0
 66
   257
 43
1.0
 76
     1
 77
     6
 78
     2
 67
     7
 79
     5
170
     0
171
     0
290
     0
174
     0
 93
        1
 44
0.0
173
     0
291
     0
 45
0.0
1001
ACAD
1000
AcDbSavedByObjectVersion
1070
     0
  0
VISUALSTYLE
  5
2E
102
{ACAD_XDICTIONARY
360
9F2
102
}
102
{ACAD_REACTORS
330
29
102
}
330
29
100
AcDbVisualStyle
  2

 70
     7
 71
     1
 72
     0
 73
     1
 90
        0
 40
-0.6
 41
-30.0
 62
     5
 63
     7
 74
     0
 91
        4
 64
     7
 65
   257
 75
     1
175
     1
 42
1.0
 92
        8
 66
     7
 43
1.0
 76
     1
 77
     6
 78
     2
 67
     7
 79
     5
170
     0
171
     0
290
     0
174
     0
 93
        1
 44
0.0
173
     0
291
     1
 45
0.0
1001
ACAD
1000
AcDbSavedByObjectVersion
1070
     0
  0
VISUALSTYLE
  5
35
102
{ACAD_XDICTIONARY
360
A00
102
}
102
{ACAD_REACTORS
330
29
102
}
330
29
100
AcDbVisualStyle
  2

 70
    12
 71
     2
 72
     2
 73
     0
 90
        0
 40
-0.6
 41
-30.0
 62
     5
 63
     7
 74
     1
 91
        4
 64
     7
 65
   257
 75
     1
175
     1
 42
1.0
 92
        8
 66
     7
 43
1.0
 76
     1
 77
     6
 78
     2
 67
     7
 79
     5
170
     0
171
     0
290
     0
174
     0
 93
        1
 44
50.0
173
     0
291
     1
 45
0.0
1001
ACAD
1000
AcDbSavedByObjectVersion
1070
     0
  0
VISUALSTYLE
  5
39
102
{ACAD_XDICTIONARY
360
A08
102
}
102
{ACAD_REACTORS
330
29
102
}
330
29
100
AcDbVisualStyle
  2

 70
    16
 71
     2
 72
     2
 73
     3
 90
        0
 40
-0.6
 41
-30.0
 62
     5
 63
     8
 74
     1
 91
        4
 64
     7
 65
   257
 75
     1
175
     1
 42
1.0
 92
        8
 66
     8
 43
1.0
 76
     1
 77
     6
 78
     2
 67
     7
 79
     5
170
     0
171
     0
290
     0
174
     0
 93
        1
 44
0.0
173
     0
291
     1
 45
0.0
1001
ACAD
1000
AcDbSavedByObjectVersion
1070
     0
  0
VISUALSTYLE
  5
32
102
{ACAD_XDICTIONARY
360
9FA
102
}
102
{ACAD_REACTORS
330
29
102
}
330
29
100
AcDbVisualStyle
  2

 70
     9
 71
     3
 72
     2
 73
     0
 90
        0
 40
-0.6
 41
-30.0
 62
     5
 63
     7
 74
     2
 91
        2
 64
     7
 65
   257
 75
     1
175
     1
 42
179.0
 92
        8
 66
     7
 43
1.0
 76
     1
 77
     6
 78
     2
 67
     7
 79
     3
170
     0
171
     0
290
     0
174
     0
 93
        1
 44
0.0
173
     0
291
     0
 45
0.0
1001
ACAD
1000
AcDbSavedByObjectVersion
1070
     0
  0
VISUALSTYLE
  5
34
102
{ACAD_XDICTIONARY
360
9FE
102
}
102
{ACAD_REACTORS
330
29
102
}
330
29
100
AcDbVisualStyle
  2

 70
    11
 71
     2
 72
     2
 73
     0
 90
        0
 40
-0.6
 41
-30.0
 62
     5
 63
     7
 74
     1
 91
        4
 64
     7
 65
   257
 75
     1
175
     1
 42
1.0
 92
        8
 66
     7
 43
1.0
 76
     1
 77
     6
 78
     2
 67
     7
 79
     5
170
     0
171
     0
290
     0
174
     0
 93
        1
 44
-50.0
173
     0
291
     1
 45
0.0
1001
ACAD
1000
AcDbSavedByObjectVersion
1070
     0
  0
VISUALSTYLE
  5
41
102
{ACAD_XDICTIONARY
360
A18
102
}
102
{ACAD_REACTORS
330
29
102
}
330
29
100
AcDbVisualStyle
  2

 70
    22
 71
     2
 72
     2
 73
     0
 90
        0
 40
-0.6
 41
-30.0
 62
     5
 63
     7
 74
     1
 91
        4
 64
     7
 65
   257
 75
     1
175
     1
 42
1.0
 92
        8
 66
     7
 43
1.0
 76
     1
 77
     6
 78
     2
 67
     7
 79
     5
170
     0
171
     0
290
     0
174
     0
 93
        1
 44
0.0
173
     0
291
     1
 45
0.0
1001
ACAD
1000
AcDbSavedByObjectVersion
1070
     0
  0
VISUALSTYLE
  5
38
102
{ACAD_XDICTIONARY
360
A06
102
}
102
{ACAD_REACTORS
330
29
102
}
330
29
100
AcDbVisualStyle
  2

 70
    15
 71
     2
 72
     2
 73
     0
 90
        0
 40
-0.6
 41
-30.0
 62
     5
 63
     7
 74
     1
 91
        4
 64
     7
 65
   257
 75
     1
175
     1
 42
1.0
 92
        8
 66
     7
 43
1.0
 76
     1
 77
     6
 78
     2
 67
     7
 79
     5
170
     0
171
     0
290
     0
174
     0
 93
        1
 44
0.0
173
     0
291
     1
 45
0.0
1001
ACAD
1000
AcDbSavedByObjectVersion
1070
     0
  0
VISUALSTYLE
  5
2A
102
{ACAD_XDICTIONARY
360
9EA
102
}
102
{ACAD_REACTORS
330
29
102
}
330
29
100
AcDbVisualStyle
  2

 70
     0
 71
     2
 72
     1
 73
     1
 90
        2
 40
-0.6
 41
30.0
 62
     5
 63
     7
 74
     0
 91
        0
 64
     7
 65
   257
 75
     1
175
     1
 42
1.0
 92
        8
 66
     7
 43
1.0
 76
     1
 77
     6
 78
     2
 67
     7
 79
     5
170
     0
171
     0
290
     0
174
     0
 93
       13
 44
0.0
173
     0
291
     1
 45
0.0
1001
ACAD
1000
AcDbSavedByObjectVersion
1070
     0
  0
VISUALSTYLE
  5
2B
102
{ACAD_XDICTIONARY
360
9EC
102
}
102
{ACAD_REACTORS
330
29
102
}
330
29
100
AcDbVisualStyle
  2

 70
     1
 71
     2
 72
     1
 73
     1
 90
        2
 40
-0.6
 41
30.0
 62
     5
 63
     7
 74
     1
 91
        0
 64
     7
 65
   257
 75
     1
175
     1
 42
1.0
 92
        0
 66
   257
 43
1.0
 76
     1
 77
     6
 78
     2
 67
     7
 79
     5
170
     0
171
     0
290
     0
174
     0
 93
       13
 44
0.0
173
     0
291
     1
 45
0.0
1001
ACAD
1000
AcDbSavedByObjectVersion
1070
     0
  0
VISUALSTYLE
  5
2C
102
{ACAD_XDICTIONARY
360
9EE
102
}
102
{ACAD_REACTORS
330
29
102
}
330
29
100
AcDbVisualStyle
  2

 70
     2
 71
     2
 72
     2
 73
     1
 90
        2
 40
-0.6
 41
30.0
 62
     5
 63
     7
 74
     0
 91
        0
 64
     7
 65
   257
 75
     1
175
     1
 42
1.0
 92
        0
 66
     7
 43
1.0
 76
     1
 77
     6
 78
     2
 67
     7
 79
     5
170
     0
171
     0
290
     0
174
     0
 93
       13
 44
0.0
173
     0
291
     1
 45
0.0
1001
ACAD
1000
AcDbSavedByObjectVersion
1070
     0
  0
VISUALSTYLE
  5
2D
102
{ACAD_XDICTIONARY
360
9F0
102
}
102
{ACAD_REACTORS
330
29
102
}
330
29
100
AcDbVisualStyle
  2

 70
     3
 71
     2
 72
     2
 73
     1
 90
        2
 40
-0.6
 41
30.0
 62
     5
 63
     7
 74
     1
 91
        0
 64
     7
 65
   257
 75
     1
175
     1
 42
1.0
 92
        0
 66
   257
 43
1.0
 76
     1
 77
     6
 78
     2
 67
     7
 79
     5
170
     0
171
     0
290
     0
174
     0
 93
       13
 44
0.0
173
     0
291
     1
 45
0.0
1001
ACAD
1000
AcDbSavedByObjectVersion
1070
     0
  0
VISUALSTYLE
  5
31
102
{ACAD_XDICTIONARY
360
9F8
102
}
102
{ACAD_REACTORS
330
29
102
}
330
29
100
AcDbVisualStyle
  2

 70
     6
 71
     1
 72
     2
 73
     2
 90
        0
 40
-0.6
 41
-30.0
 62
     5
 63
     7
 74
     2
 91
        2
 64
     7
 65
   257
 75
     2
175
     1
 42
40.0
 92
        0
 66
   257
 43
1.0
 76
     1
 77
     6
 78
     2
 67
     7
 79
     3
170
     0
171
     0
290
     0
174
     0
 93
        1
 44
0.0
173
     0
291
     0
 45
0.0
1001
ACAD
1000
AcDbSavedByObjectVersion
1070
     0
  0
VISUALSTYLE
  5
3F
102
{ACAD_XDICTIONARY
360
A14
102
}
102
{ACAD_REACTORS
330
29
102
}
330
29
100
AcDbVisualStyle
  2

 70
    20
 71
     2
 72
     2
 73
     0
 90
        0
 40
-0.6
 41
-30.0
 62
     5
 63
     7
 74
     1
 91
        4
 64
     7
 65
   257
 75
     1
175
     1
 42
1.0
 92
       10
 66
     7
 43
1.0
 76
     1
 77
     6
 78
     2
 67
     7
 79
     5
170
     0
171
     0
290
     0
174
     0
 93
        1
 44
0.0
173
     0
291
     1
 45
0.0
1001
ACAD
1000
AcDbSavedByObjectVersion
1070
     0
  0
VISUALSTYLE
  5
37
102
{ACAD_XDICTIONARY
360
A04
102
}
102
{ACAD_REACTORS
330
29
102
}
330
29
100
AcDbVisualStyle
  2

 70
    14
 71
     2
 72
     2
 73
     0
 90
        0
 40
-0.6
 41
-30.0
 62
     5
 63
     7
 74
     1
 91
        4
 64
     7
 65
   257
 75
     7
175
     7
 42
1.0
 92
        8
 66
     7
 43
1.0
 76
     1
 77
     6
 78
     2
 67
     7
 79
     5
170
     0
171
     0
290
     0
174
     0
 93
        1
 44
0.0
173
     0
291
     1
 45
0.0
1001
ACAD
1000
AcDbSavedByObjectVersion
1070
     0
  0
VISUALSTYLE
  5
40
102
{ACAD_XDICTIONARY
360
A16
102
}
102
{ACAD_REACTORS
330
29
102
}
330
29
100
AcDbVisualStyle
  2

 70
    21
 71
     2
 72
     2
 73
     0
 90
        0
 40
-0.6
 41
-30.0
 62
     5
 63
     7
 74
     1
 91
        4
 64
     7
 65
   257
 75
     1
175
     1
 42
1.0
 92
        9
 66
     7
 43
1.0
 76
     1
 77
     6
 78
     2
 67
     7
 79
     5
170
     0
171
     0
290
     0
174
     0
 93
        1
 44
0.0
173
     0
291
     1
 45
0.0
1001
ACAD
1000
AcDbSavedByObjectVersion
1070
     0
  0
VISUALSTYLE
  5
33
102
{ACAD_XDICTIONARY
360
9FC
102
}
102
{ACAD_REACTORS
330
29
102
}
330
29
100
AcDbVisualStyle
  2

 70
     8
 71
     2
 72
     2
 73
     0
 90
        2
 40
-0.6
 41
30.0
 62
     5
 63
     7
 74
     0
 91
        0
 64
     7
 65
   257
 75
     1
175
     1
 42
1.0
 92
        8
 66
   257
 43
1.0
 76
     1
 77
     6
 78
     2
 67
     7
 79
     3
170
     0
171
     0
290
     0
174
     0
 93
       13
 44
0.0
173
     0
291
     0
 45
0.0
1001
ACAD
1000
AcDbSavedByObjectVersion
1070
     0
  0
VISUALSTYLE
  5
3E
102
{ACAD_XDICTIONARY
360
A12
102
}
102
{ACAD_REACTORS
330
29
102
}
330
29
100
AcDbVisualStyle
  2

 70
    27
 71
     2
 72
     2
 73
     1
 90
        2
 40
-0.6
 41
30.0
 62
     5
 63
     7
 74
     0
 91
        4
 64
     7
 65
   257
 75
     1
175
     1
 42
1.0
 92
        8
 66
   257
 43
1.0
 76
     1
 77
     6
 78
     2
 67
     8
 79
     3
170
     0
171
     0
290
     0
174
     0
 93
        5
 44
0.0
173
     0
291
     0
 45
0.0
1001
ACAD
1000
AcDbSavedByObjectVersion
1070
     0
  0
VISUALSTYLE
  5
3D
102
{ACAD_XDICTIONARY
360
A10
102
}
102
{ACAD_REACTORS
330
29
102
}
330
29
100
AcDbVisualStyle
  2

 70
    26
 71
     2
 72
     2
 73
     1
 90
        2
 40
-0.6
 41
30.0
 62
     5
 63
     7
 74
     1
 91
       10
 64
     7
 65
   257
 75
     2
175
     1
 42
1.0
 92
        8
 66
   257
 43
1.0
 76
     1
 77
     6
 78
     2
 67
     7
 79
     3
170
     0
171
     0
290
     0
174
     0
 93
        5
 44
0.0
173
     0
291
     0
 45
0.0
1001
ACAD
1000
AcDbSavedByObjectVersion
1070
     0
  0
VISUALSTYLE
  5
3A
102
{ACAD_XDICTIONARY
360
A0A
102
}
102
{ACAD_REACTORS
330
29
102
}
330
29
100
AcDbVisualStyle
  2

 70
    23
 71
     2
 72
     2
 73
     3
 90
        0
 40
-0.6
 41
-30.0
 62
     5
 63
     7
 74
     2
 91
        2
 64
     7
 65
     7
 75
     1
175
     1
 42
40.0
 92
        8
 66
     7
 43
1.0
 76
     1
 77
     6
 78
     2
 67
     7
 79
     3
170
     0
171
     0
290
     0
174
     0
 93
        1
 44
0.0
173
     0
291
     0
 45
0.0
1001
ACAD
1000
AcDbSavedByObjectVersion
1070
     0
  0
VISUALSTYLE
  5
3B
102
{ACAD_XDICTIONARY
360
A0C
102
}
102
{ACAD_REACTORS
330
29
102
}
330
29
100
AcDbVisualStyle
  2

 70
    24
 71
     1
 72
     2
 73
     2
 90
        0
 40
-0.6
 41
-30.0
 62
     5
 63
     7
 74
     2
 91
        2
 64
     7
 65
     7
 75
     1
175
     1
 42
40.0
 92
       11
 66
     7
 43
1.0
 76
     1
 77
     6
 78
     2
 67
     7
 79
     6
170
     0
171
     0
290
     0
174
     0
 93
        1
 44
0.0
173
     0
291
     0
 45
0.0
1001
ACAD
1000
AcDbSavedByObjectVersion
1070
     0
  0
VISUALSTYLE
  5
36
102
{ACAD_XDICTIONARY
360
A02
102
}
102
{ACAD_REACTORS
330
29
102
}
330
29
100
AcDbVisualStyle
  2

 70
    13
 71
     2
 72
     2
 73
     0
 90
        0
 40
-0.6
 41
-30.0
 62
     5
 63
     7
 74
     1
 91
        4
 64
     7
 65
   257
 75
     1
175
     1
 42
1.0
 92
       12
 66
     7
 43
1.0
 76
     1
 77
     6
 78
     2
 67
     7
 79
     5
170
     0
171
     0
290
     0
174
     0
 93
        1
 44
0.0
173
     0
291
     1
 45
0.0
1001
ACAD
1000
AcDbSavedByObjectVersion
1070
     0
  0
VISUALSTYLE
  5
30
102
{ACAD_XDICTIONARY
360
9F6
102
}
102
{ACAD_REACTORS
330
29
102
}
330
29
100
AcDbVisualStyle
  2

 70
     5
 71
     0
 72
     2
 73
     0
 90
        0
 40
-0.6
 41
-30.0
 62
     5
 63
     7
 74
     1
 91
        4
 64
     7
 65
   257
 75
     1
175
     1
 42
1.0
 92
        0
 66
   257
 43
1.0
 76
     1
 77
     6
 78
     2
 67
     7
 79
     3
170
     0
171
     0
290
     0
174
     0
 93
        1
 44
0.0
173
     0
291
     0
 45
0.0
1001
ACAD
1000
AcDbSavedByObjectVersion
1070
     0
  0
VISUALSTYLE
  5
3C
102
{ACAD_XDICTIONARY
360
A0E
102
}
102
{ACAD_REACTORS
330
29
102
}
330
29
100
AcDbVisualStyle
  2

 70
    25
 71
     2
 72
     2
 73
     1
 90
        1
 40
0.5
 41
-30.0
 62
     5
 63
     7
 74
     1
 91
        0
 64
     7
 65
   257
 75
     1
175
     1
 42
1.0
 92
        8
 66
     7
 43
1.0
 76
     1
 77
     6
 78
     2
 67
     7
 79
     3
170
     0
171
     0
290
     0
174
     0
 93
       13
 44
0.0
173
     0
291
     0
 45
0.0
1001
ACAD
1000
AcDbSavedByObjectVersion
1070
     0
  0
DICTIONARYVAR
  5
446
102
{ACAD_REACTORS
330
442
102
}
330
442
100
DictionaryVariables
280
     0
  1
1:1
  0
DICTIONARYVAR
  5
444
102
{ACAD_REACTORS
330
442
102
}
330
442
100
DictionaryVariables
280
     0
  1
STANDARD
  0
DICTIONARYVAR
  5
443
102
{ACAD_REACTORS
330
442
102
}
330
442
100
DictionaryVariables
280
     0
  1
STANDARD
  0
DICTIONARYVAR
  5
44D
102
{ACAD_REACTORS
330
442
102
}
330
442
100
DictionaryVariables
280
     0
  1
1
  0
DICTIONARYVAR
  5
44C
102
{ACAD_REACTORS
330
442
102
}
330
442
100
DictionaryVariables
280
     0
  1
1
  0
DICTIONARYVAR
  5
44B
102
{ACAD_REACTORS
330
442
102
}
330
442
100
DictionaryVariables
280
     0
  1
0
  0
DICTIONARYVAR
  5
448
102
{ACAD_REACTORS
330
442
102
}
330
442
100
DictionaryVariables
280
     0
  1
0
  0
DICTIONARYVAR
  5
449
102
{ACAD_REACTORS
330
442
102
}
330
442
100
DictionaryVariables
280
     0
  1
0
  0
DICTIONARYVAR
  5
447
102
{ACAD_REACTORS
330
442
102
}
330
442
100
DictionaryVariables
280
     0
  1
2
  0
DICTIONARYVAR
  5
445
102
{ACAD_REACTORS
330
442
102
}
330
442
100
DictionaryVariables
280
     0
  1
1
  0
DICTIONARYVAR
  5
44A
102
{ACAD_REACTORS
330
442
102
}
330
442
100
DictionaryVariables
280
     0
  1
127
  0
DICTIONARYVAR
  5
9E6
102
{ACAD_REACTORS
330
442
102
}
330
442
100
DictionaryVariables
280
     0
  1
2
  0
DICTIONARY
  5
A1B
330
6B
100
AcDbDictionary
280
     1
281
     1
  3
ACAD_XREC_ROUNDTRIP
360
A1C
  0
DICTIONARY
  5
A1F
330
73
100
AcDbDictionary
280
     1
281
     1
  3
ACAD_XREC_ROUNDTRIP
360
A20
  0
DICTIONARY
  5
A1D
330
6F
100
AcDbDictionary
280
     1
281
     1
  3
ACAD_XREC_ROUNDTRIP
360
A1E
  0
DICTIONARY
  5
1A
330
19
100
AcDbDictionary
280
     1
281
     1
  3
ACAD_XREC_ROUNDTRIP
360
505
  3
BUMPTILE
360
1C
  3
DIFFUSETILE
360
1B
  3
OPACITYTILE
360
1F
  3
REFLECTIONTILE
360
1E
  3
REFRACTIONTILE
360
20
  3
SPECULARTILE
360
1D
  0
DICTIONARY
  5
12
330
11
100
AcDbDictionary
280
     1
281
     1
  3
ACAD_XREC_ROUNDTRIP
360
504
  3
BUMPTILE
360
14
  3
DIFFUSETILE
360
13
  3
OPACITYTILE
360
17
  3
REFLECTIONTILE
360
16
  3
REFRACTIONTILE
360
18
  3
SPECULARTILE
360
15
  0
DICTIONARY
  5
22
330
21
100
AcDbDictionary
280
     1
281
     1
  3
ACAD_XREC_ROUNDTRIP
360
506
  3
BUMPTILE
360
24
  3
DIFFUSETILE
360
23
  3
OPACITYTILE
360
27
  3
REFLECTIONTILE
360
26
  3
REFRACTIONTILE
360
28
  3
SPECULARTILE
360
25
  0
DICTIONARY
  5
3C3
330
65
100
AcDbDictionary
280
     1
281
     1
  3
ACAD_ROUNDTRIP_2008_TABLESTYLE_CELLSTYLEMAP
360
9E7
  3
ACAD_XREC_ROUNDTRIP
360
A1A
  0
DICTIONARY
  5
9F4
330
2F
100
AcDbDictionary
280
     1
281
     1
  3
ACAD_XREC_ROUNDTRIP
360
9F5
  0
DICTIONARY
  5
9F2
330
2E
100
AcDbDictionary
280
     1
281
     1
  3
ACAD_XREC_ROUNDTRIP
360
9F3
  0
DICTIONARY
  5
A00
330
35
100
AcDbDictionary
280
     1
281
     1
  3
ACAD_XREC_ROUNDTRIP
360
A01
  0
DICTIONARY
  5
A08
330
39
100
AcDbDictionary
280
     1
281
     1
  3
ACAD_XREC_ROUNDTRIP
360
A09
  0
DICTIONARY
  5
9FA
330
32
100
AcDbDictionary
280
     1
281
     1
  3
ACAD_XREC_ROUNDTRIP
360
9FB
  0
DICTIONARY
  5
9FE
330
34
100
AcDbDictionary
280
     1
281
     1
  3
ACAD_XREC_ROUNDTRIP
360
9FF
  0
DICTIONARY
  5
A18
330
41
100
AcDbDictionary
280
     1
281
     1
  3
ACAD_XREC_ROUNDTRIP
360
A19
  0
DICTIONARY
  5
A06
330
38
100
AcDbDictionary
280
     1
281
     1
  3
ACAD_XREC_ROUNDTRIP
360
A07
  0
DICTIONARY
  5
9EA
330
2A
100
AcDbDictionary
280
     1
281
     1
  3
ACAD_XREC_ROUNDTRIP
360
9EB
  0
DICTIONARY
  5
9EC
330
2B
100
AcDbDictionary
280
     1
281
     1
  3
ACAD_XREC_ROUNDTRIP
360
9ED
  0
DICTIONARY
  5
9EE
330
2C
100
AcDbDictionary
280
     1
281
     1
  3
ACAD_XREC_ROUNDTRIP
360
9EF
  0
DICTIONARY
  5
9F0
330
2D
100
AcDbDictionary
280
     1
281
     1
  3
ACAD_XREC_ROUNDTRIP
360
9F1
  0
DICTIONARY
  5
9F8
330
31
100
AcDbDictionary
280
     1
281
     1
  3
ACAD_XREC_ROUNDTRIP
360
9F9
  0
DICTIONARY
  5
A14
330
3F
100
AcDbDictionary
280
     1
281
     1
  3
ACAD_XREC_ROUNDTRIP
360
A15
  0
DICTIONARY
  5
A04
330
37
100
AcDbDictionary
280
     1
281
     1
  3
ACAD_XREC_ROUNDTRIP
360
A05
  0
DICTIONARY
  5
A16
330
40
100
AcDbDictionary
280
     1
281
     1
  3
ACAD_XREC_ROUNDTRIP
360
A17
  0
DICTIONARY
  5
9FC
330
33
100
AcDbDictionary
280
     1
281
     1
  3
ACAD_XREC_ROUNDTRIP
360
9FD
  0
DICTIONARY
  5
A12
330
3E
100
AcDbDictionary
280
     1
281
     1
  3
ACAD_XREC_ROUNDTRIP
360
A13
  0
DICTIONARY
  5
A10
330
3D
100
AcDbDictionary
280
     1
281
     1
  3
ACAD_XREC_ROUNDTRIP
360
A11
  0
DICTIONARY
  5
A0A
330
3A
100
AcDbDictionary
280
     1
281
     1
  3
ACAD_XREC_ROUNDTRIP
360
A0B
  0
DICTIONARY
  5
A0C
330
3B
100
AcDbDictionary
280
     1
281
     1
  3
ACAD_XREC_ROUNDTRIP
360
A0D
  0
DICTIONARY
  5
A02
330
36
100
AcDbDictionary
280
     1
281
     1
  3
ACAD_XREC_ROUNDTRIP
360
A03
  0
DICTIONARY
  5
9F6
330
30
100
AcDbDictionary
280
     1
281
     1
  3
ACAD_XREC_ROUNDTRIP
360
9F7
  0
DICTIONARY
  5
A0E
330
3C
100
AcDbDictionary
280
     1
281
     1
  3
ACAD_XREC_ROUNDTRIP
360
A0F
  0
XRECORD
  5
A1C
102
{ACAD_REACTORS
330
A1B
102
}
330
A1B
100
AcDbXrecord
280
     1
102
SHADEPLOT
 70
     0
102
SHADEPLOTRESLEVEL
 70
     2
102
SHADEPLOTCUSTOMDPI
 70
   300
  0
XRECORD
  5
A20
102
{ACAD_REACTORS
330
A1F
102
}
330
A1F
100
AcDbXrecord
280
     1
102
SHADEPLOT
 70
     0
102
SHADEPLOTRESLEVEL
 70
     2
102
SHADEPLOTCUSTOMDPI
 70
   300
  0
XRECORD
  5
A1E
102
{ACAD_REACTORS
330
A1D
102
}
330
A1D
100
AcDbXrecord
280
     1
102
SHADEPLOT
 70
     0
102
SHADEPLOTRESLEVEL
 70
     2
102
SHADEPLOTCUSTOMDPI
 70
   300
  0
XRECORD
  5
505
102
{ACAD_REACTORS
330
1A
102
}
330
1A
100
AcDbXrecord
280
     1
102
MATERIAL
148
0.0
149
0.0
149
0.0
 93
        0
 94
      127
282
     0
 72
     0
 77
     0
171
     0
175
     0
179
     0
273
     0
  0
XRECORD
  5
1C
102
{ACAD_REACTORS
330
1A
102
}
330
1A
100
AcDbXrecord
280
     1
270
     1
271
     1
  0
XRECORD
  5
1B
102
{ACAD_REACTORS
330
1A
102
}
330
1A
100
AcDbXrecord
280
     1
270
     1
271
     1
  0
XRECORD
  5
1F
102
{ACAD_REACTORS
330
1A
102
}
330
1A
100
AcDbXrecord
280
     1
270
     1
271
     1
  0
XRECORD
  5
1E
102
{ACAD_REACTORS
330
1A
102
}
330
1A
100
AcDbXrecord
280
     1
270
     1
271
     1
  0
XRECORD
  5
20
102
{ACAD_REACTORS
330
1A
102
}
330
1A
100
AcDbXrecord
280
     1
270
     1
271
     1
  0
XRECORD
  5
1D
102
{ACAD_REACTORS
330
1A
102
}
330
1A
100
AcDbXrecord
280
     1
270
     1
271
     1
  0
XRECORD
  5
504
102
{ACAD_REACTORS
330
12
102
}
330
12
100
AcDbXrecord
280
     1
102
MATERIAL
148
0.0
149
0.0
149
0.0
 93
        0
 94
      127
282
     0
 72
     0
 77
     0
171
     0
175
     0
179
     0
273
     0
  0
XRECORD
  5
14
102
{ACAD_REACTORS
330
12
102
}
330
12
100
AcDbXrecord
280
     1
270
     1
271
     1
  0
XRECORD
  5
13
102
{ACAD_REACTORS
330
12
102
}
330
12
100
AcDbXrecord
280
     1
270
     1
271
     1
  0
XRECORD
  5
17
102
{ACAD_REACTORS
330
12
102
}
330
12
100
AcDbXrecord
280
     1
270
     1
271
     1
  0
XRECORD
  5
16
102
{ACAD_REACTORS
330
12
102
}
330
12
100
AcDbXrecord
280
     1
270
     1
271
     1
  0
XRECORD
  5
18
102
{ACAD_REACTORS
330
12
102
}
330
12
100
AcDbXrecord
280
     1
270
     1
271
     1
  0
XRECORD
  5
15
102
{ACAD_REACTORS
330
12
102
}
330
12
100
AcDbXrecord
280
     1
270
     1
271
     1
  0
XRECORD
  5
506
102
{ACAD_REACTORS
330
22
102
}
330
22
100
AcDbXrecord
280
     1
102
MATERIAL
148
0.0
149
0.0
149
0.0
 93
        0
 94
      127
282
     0
 72
     0
 77
     0
171
     0
175
     0
179
     0
273
     0
  0
XRECORD
  5
24
102
{ACAD_REACTORS
330
22
102
}
330
22
100
AcDbXrecord
280
     1
270
     1
271
     1
  0
XRECORD
  5
23
102
{ACAD_REACTORS
330
22
102
}
330
22
100
AcDbXrecord
280
     1
270
     1
271
     1
  0
XRECORD
  5
27
102
{ACAD_REACTORS
330
22
102
}
330
22
100
AcDbXrecord
280
     1
270
     1
271
     1
  0
XRECORD
  5
26
102
{ACAD_REACTORS
330
22
102
}
330
22
100
AcDbXrecord
280
     1
270
     1
271
     1
  0
XRECORD
  5
28
102
{ACAD_REACTORS
330
22
102
}
330
22
100
AcDbXrecord
280
     1
270
     1
271
     1
  0
XRECORD
  5
25
102
{ACAD_REACTORS
330
22
102
}
330
22
100
AcDbXrecord
280
     1
270
     1
271
     1
  0
CELLSTYLEMAP
  5
9E7
102
{ACAD_REACTORS
330
3C3
102
}
330
3C3
100
AcDbCellStyleMap
 90
        3
300
CELLSTYLE
  1
TABLEFORMAT_BEGIN
 90
        5
170
     1
 91
        0
 92
    32768
 62
   257
 93
        1
300
CONTENTFORMAT
  1
CONTENTFORMAT_BEGIN
 90
        0
 91
        0
 92
      512
 93
        0
300

 40
0.0
140
1.0
 94
        5
 62
     0
340
55
144
0.25
309
CONTENTFORMAT_END
171
     1
301
MARGIN
  1
CELLMARGIN_BEGIN
 40
0.06
 40
0.06
 40
0.06
 40
0.06
 40
0.18
 40
0.18
309
CELLMARGIN_END
 94
        6
 95
        1
302
GRIDFORMAT
  1
GRIDFORMAT_BEGIN
 90
        0
 91
        1
 62
     0
 92
       -2
340
0
 93
        0
 40
0.045
309
GRIDFORMAT_END
 95
        2
302
GRIDFORMAT
  1
GRIDFORMAT_BEGIN
 90
        0
 91
        1
 62
     0
 92
       -2
340
0
 93
        0
 40
0.045
309
GRIDFORMAT_END
 95
        4
302
GRIDFORMAT
  1
GRIDFORMAT_BEGIN
 90
        0
 91
        1
 62
     0
 92
       -2
340
0
 93
        0
 40
0.045
309
GRIDFORMAT_END
 95
        8
302
GRIDFORMAT
  1
GRIDFORMAT_BEGIN
 90
        0
 91
        1
 62
     0
 92
       -2
340
0
 93
        0
 40
0.045
309
GRIDFORMAT_END
 95
       16
302
GRIDFORMAT
  1
GRIDFORMAT_BEGIN
 90
        0
 91
        1
 62
     0
 92
       -2
340
0
 93
        0
 40
0.045
309
GRIDFORMAT_END
 95
       32
302
GRIDFORMAT
  1
GRIDFORMAT_BEGIN
 90
        0
 91
        1
 62
     0
 92
       -2
340
0
 93
        0
 40
0.045
309
GRIDFORMAT_END
309
TABLEFORMAT_END
  1
CELLSTYLE_BEGIN
 90
        1
 91
        1
300
_TITLE
309
CELLSTYLE_END
300
CELLSTYLE
  1
TABLEFORMAT_BEGIN
 90
        5
170
     1
 91
        0
 92
        0
 62
   257
 93
        1
300
CONTENTFORMAT
  1
CONTENTFORMAT_BEGIN
 90
        0
 91
        0
 92
      512
 93
        0
300

 40
0.0
140
1.0
 94
        5
 62
     0
340
55
144
0.18
309
CONTENTFORMAT_END
171
     1
301
MARGIN
  1
CELLMARGIN_BEGIN
 40
0.06
 40
0.06
 40
0.06
 40
0.06
 40
0.18
 40
0.18
309
CELLMARGIN_END
 94
        6
 95
        1
302
GRIDFORMAT
  1
GRIDFORMAT_BEGIN
 90
        0
 91
        1
 62
     0
 92
       -2
340
0
 93
        0
 40
0.045
309
GRIDFORMAT_END
 95
        2
302
GRIDFORMAT
  1
GRIDFORMAT_BEGIN
 90
        0
 91
        1
 62
     0
 92
       -2
340
0
 93
        0
 40
0.045
309
GRIDFORMAT_END
 95
        4
302
GRIDFORMAT
  1
GRIDFORMAT_BEGIN
 90
        0
 91
        1
 62
     0
 92
       -2
340
0
 93
        0
 40
0.045
309
GRIDFORMAT_END
 95
        8
302
GRIDFORMAT
  1
GRIDFORMAT_BEGIN
 90
        0
 91
        1
 62
     0
 92
       -2
340
0
 93
        0
 40
0.045
309
GRIDFORMAT_END
 95
       16
302
GRIDFORMAT
  1
GRIDFORMAT_BEGIN
 90
        0
 91
        1
 62
     0
 92
       -2
340
0
 93
        0
 40
0.045
309
GRIDFORMAT_END
 95
       32
302
GRIDFORMAT
  1
GRIDFORMAT_BEGIN
 90
        0
 91
        1
 62
     0
 92
       -2
340
0
 93
        0
 40
0.045
309
GRIDFORMAT_END
309
TABLEFORMAT_END
  1
CELLSTYLE_BEGIN
 90
        2
 91
        1
300
_HEADER
309
CELLSTYLE_END
300
CELLSTYLE
  1
TABLEFORMAT_BEGIN
 90
        5
170
     1
 91
        0
 92
        0
 62
   257
 93
        1
300
CONTENTFORMAT
  1
CONTENTFORMAT_BEGIN
 90
        0
 91
        0
 92
      512
 93
        0
300

 40
0.0
140
1.0
 94
        2
 62
     0
340
55
144
0.18
309
CONTENTFORMAT_END
171
     1
301
MARGIN
  1
CELLMARGIN_BEGIN
 40
0.06
 40
0.06
 40
0.06
 40
0.06
 40
0.18
 40
0.18
309
CELLMARGIN_END
 94
        6
 95
        1
302
GRIDFORMAT
  1
GRIDFORMAT_BEGIN
 90
        0
 91
        1
 62
     0
 92
       -2
340
0
 93
        0
 40
0.045
309
GRIDFORMAT_END
 95
        2
302
GRIDFORMAT
  1
GRIDFORMAT_BEGIN
 90
        0
 91
        1
 62
     0
 92
       -2
340
0
 93
        0
 40
0.045
309
GRIDFORMAT_END
 95
        4
302
GRIDFORMAT
  1
GRIDFORMAT_BEGIN
 90
        0
 91
        1
 62
     0
 92
       -2
340
0
 93
        0
 40
0.045
309
GRIDFORMAT_END
 95
        8
302
GRIDFORMAT
  1
GRIDFORMAT_BEGIN
 90
        0
 91
        1
 62
     0
 92
       -2
340
0
 93
        0
 40
0.045
309
GRIDFORMAT_END
 95
       16
302
GRIDFORMAT
  1
GRIDFORMAT_BEGIN
 90
        0
 91
        1
 62
     0
 92
       -2
340
0
 93
        0
 40
0.045
309
GRIDFORMAT_END
 95
       32
302
GRIDFORMAT
  1
GRIDFORMAT_BEGIN
 90
        0
 91
        1
 62
     0
 92
       -2
340
0
 93
        0
 40
0.045
309
GRIDFORMAT_END
309
TABLEFORMAT_END
  1
CELLSTYLE_BEGIN
 90
        3
 91
        2
300
_DATA
309
CELLSTYLE_END
  0
XRECORD
  5
A1A
102
{ACAD_REACTORS
330
3C3
102
}
330
3C3
100
AcDbXrecord
280
     1
102
ACAD_ROUNDTRIP_PRE2007_TABLESTYLE
 90
      512
 91
        0
  1

 92
      512
 93
        0
  2

 94
      512
 95
        0
  3

  0
XRECORD
  5
9F5
102
{ACAD_REACTORS
330
9F4
102
}
330
9F4
100
AcDbXrecord
280
     1
102
RTVSPropertyOp0
 70
     1
102
RTVSPropertyOp1
 70
     1
102
RTVSPropertyOp2
 70
     1
102
RTVSPropertyOp3
 70
     1
102
RTVSPropertyOp4
 70
     1
102
RTVSPropertyOp5
 70
     1
102
RTVSPropertyOp6
 70
     1
102
RTVSPropertyOp7
 70
     1
102
RTVSPropertyOp8
 70
     1
102
RTVSPropertyOp9
 70
     1
102
RTVSPropertyOp10
 70
     1
102
RTVSPropertyOp11
 70
     1
102
RTVSPropertyOp12
 70
     1
102
RTVSPropertyOp13
 70
     1
102
RTVSPropertyOp14
 70
     1
102
RTVSPropertyOp15
 70
     1
102
RTVSPropertyOp16
 70
     1
102
RTVSPropertyOp17
 70
     1
102
RTVSPropertyOp18
 70
     1
102
RTVSPropertyOp19
 70
     1
102
RTVSPropertyOp20
 70
     1
102
RTVSPropertyOp21
 70
     1
102
RTVSPropertyOp22
 70
     1
102
RTVSPropertyOp23
 70
     1
102
RTVSPropertyOp24
 70
     1
102
RTVSPropertyOp25
 70
     1
102
RTVSPropertyOp26
 70
     1
102
RTVSPropertyOp27
 70
     1
102
RTVSPropertyOp28
 70
     1
102
RTVSPropertyOp29
 70
     1
102
RTVSPropertyOp30
 70
     1
102
RTVSPropertyOp31
 70
     1
102
RTVSPropertyOp32
 70
     1
  0
XRECORD
  5
9F3
102
{ACAD_REACTORS
330
9F2
102
}
330
9F2
100
AcDbXrecord
280
     1
102
RTVSPropertyOp0
 70
     1
102
RTVSPropertyOp1
 70
     1
102
RTVSPropertyOp2
 70
     1
102
RTVSPropertyOp3
 70
     1
102
RTVSPropertyOp4
 70
     1
102
RTVSPropertyOp5
 70
     1
102
RTVSPropertyOp6
 70
     1
102
RTVSPropertyOp7
 70
     1
102
RTVSPropertyOp8
 70
     1
102
RTVSPropertyOp9
 70
     1
102
RTVSPropertyOp10
 70
     1
102
RTVSPropertyOp11
 70
     1
102
RTVSPropertyOp12
 70
     1
102
RTVSPropertyOp13
 70
     1
102
RTVSPropertyOp14
 70
     1
102
RTVSPropertyOp15
 70
     1
102
RTVSPropertyOp16
 70
     1
102
RTVSPropertyOp17
 70
     1
102
RTVSPropertyOp18
 70
     1
102
RTVSPropertyOp19
 70
     1
102
RTVSPropertyOp20
 70
     1
102
RTVSPropertyOp21
 70
     1
102
RTVSPropertyOp22
 70
     1
102
RTVSPropertyOp23
 70
     1
102
RTVSPropertyOp24
 70
     1
102
RTVSPropertyOp25
 70
     1
102
RTVSPropertyOp26
 70
     1
102
RTVSPropertyOp27
 70
     1
102
RTVSPropertyOp28
 70
     1
102
RTVSPropertyOp29
 70
     1
102
RTVSPropertyOp30
 70
     1
102
RTVSPropertyOp31
 70
     1
102
RTVSPropertyOp32
 70
     1
  0
XRECORD
  5
A01
102
{ACAD_REACTORS
330
A00
102
}
330
A00
100
AcDbXrecord
280
     1
102
RTVSPropertyOp0
 70
     1
102
RTVSPropertyOp1
 70
     1
102
RTVSPropertyOp2
 70
     1
102
RTVSPropertyOp3
 70
     1
102
RTVSPropertyOp4
 70
     1
102
RTVSPropertyOp5
 70
     1
102
RTVSPropertyOp6
 70
     1
102
RTVSPropertyOp7
 70
     1
102
RTVSPropertyOp8
 70
     1
102
RTVSPropertyOp9
 70
     1
102
RTVSPropertyOp10
 70
     1
102
RTVSPropertyOp11
 70
     1
102
RTVSPropertyOp12
 70
     1
102
RTVSPropertyOp13
 70
     1
102
RTVSPropertyOp14
 70
     1
102
RTVSPropertyOp15
 70
     1
102
RTVSPropertyOp16
 70
     1
102
RTVSPropertyOp17
 70
     1
102
RTVSPropertyOp18
 70
     1
102
RTVSPropertyOp19
 70
     1
102
RTVSPropertyOp20
 70
     1
102
RTVSPropertyOp21
 70
     1
102
RTVSPropertyOp22
 70
     1
102
RTVSPropertyOp23
 70
     1
102
RTVSPropertyOp24
 70
     1
102
RTVSPropertyOp25
 70
     1
102
RTVSPropertyOp26
 70
     1
102
RTVSPropertyOp27
 70
     1
102
RTVSPropertyOp28
 70
     1
102
RTVSPropertyOp29
 70
     1
102
RTVSPropertyOp30
 70
     1
102
RTVSPropertyOp31
 70
     1
102
RTVSPropertyOp32
 70
     1
  0
XRECORD
  5
A09
102
{ACAD_REACTORS
330
A08
102
}
330
A08
100
AcDbXrecord
280
     1
102
RTVSPropertyOp0
 70
     1
102
RTVSPropertyOp1
 70
     1
102
RTVSPropertyOp2
 70
     1
102
RTVSPropertyOp3
 70
     1
102
RTVSPropertyOp4
 70
     1
102
RTVSPropertyOp5
 70
     1
102
RTVSPropertyOp6
 70
     1
102
RTVSPropertyOp7
 70
     1
102
RTVSPropertyOp8
 70
     1
102
RTVSPropertyOp9
 70
     1
102
RTVSPropertyOp10
 70
     1
102
RTVSPropertyOp11
 70
     1
102
RTVSPropertyOp12
 70
     1
102
RTVSPropertyOp13
 70
     1
102
RTVSPropertyOp14
 70
     1
102
RTVSPropertyOp15
 70
     1
102
RTVSPropertyOp16
 70
     1
102
RTVSPropertyOp17
 70
     1
102
RTVSPropertyOp18
 70
     1
102
RTVSPropertyOp19
 70
     1
102
RTVSPropertyOp20
 70
     1
102
RTVSPropertyOp21
 70
     1
102
RTVSPropertyOp22
 70
     1
102
RTVSPropertyOp23
 70
     1
102
RTVSPropertyOp24
 70
     1
102
RTVSPropertyOp25
 70
     1
102
RTVSPropertyOp26
 70
     1
102
RTVSPropertyOp27
 70
     1
102
RTVSPropertyOp28
 70
     1
102
RTVSPropertyOp29
 70
     1
102
RTVSPropertyOp30
 70
     1
102
RTVSPropertyOp31
 70
     1
102
RTVSPropertyOp32
 70
     1
  0
XRECORD
  5
9FB
102
{ACAD_REACTORS
330
9FA
102
}
330
9FA
100
AcDbXrecord
280
     1
102
RTVSPropertyOp0
 70
     1
102
RTVSPropertyOp1
 70
     1
102
RTVSPropertyOp2
 70
     1
102
RTVSPropertyOp3
 70
     1
102
RTVSPropertyOp4
 70
     1
102
RTVSPropertyOp5
 70
     1
102
RTVSPropertyOp6
 70
     1
102
RTVSPropertyOp7
 70
     1
102
RTVSPropertyOp8
 70
     1
102
RTVSPropertyOp9
 70
     1
102
RTVSPropertyOp10
 70
     1
102
RTVSPropertyOp11
 70
     1
102
RTVSPropertyOp12
 70
     1
102
RTVSPropertyOp13
 70
     1
102
RTVSPropertyOp14
 70
     1
102
RTVSPropertyOp15
 70
     1
102
RTVSPropertyOp16
 70
     1
102
RTVSPropertyOp17
 70
     1
102
RTVSPropertyOp18
 70
     1
102
RTVSPropertyOp19
 70
     1
102
RTVSPropertyOp20
 70
     1
102
RTVSPropertyOp21
 70
     1
102
RTVSPropertyOp22
 70
     1
102
RTVSPropertyOp23
 70
     1
102
RTVSPropertyOp24
 70
     1
102
RTVSPropertyOp25
 70
     1
102
RTVSPropertyOp26
 70
     1
102
RTVSPropertyOp27
 70
     1
102
RTVSPropertyOp28
 70
     1
102
RTVSPropertyOp29
 70
     1
102
RTVSPropertyOp30
 70
     1
102
RTVSPropertyOp31
 70
     1
102
RTVSPropertyOp32
 70
     1
  0
XRECORD
  5
9FF
102
{ACAD_REACTORS
330
9FE
102
}
330
9FE
100
AcDbXrecord
280
     1
102
RTVSPropertyOp0
 70
     1
102
RTVSPropertyOp1
 70
     1
102
RTVSPropertyOp2
 70
     1
102
RTVSPropertyOp3
 70
     1
102
RTVSPropertyOp4
 70
     1
102
RTVSPropertyOp5
 70
     1
102
RTVSPropertyOp6
 70
     1
102
RTVSPropertyOp7
 70
     1
102
RTVSPropertyOp8
 70
     1
102
RTVSPropertyOp9
 70
     1
102
RTVSPropertyOp10
 70
     1
102
RTVSPropertyOp11
 70
     1
102
RTVSPropertyOp12
 70
     1
102
RTVSPropertyOp13
 70
     1
102
RTVSPropertyOp14
 70
     1
102
RTVSPropertyOp15
 70
     1
102
RTVSPropertyOp16
 70
     1
102
RTVSPropertyOp17
 70
     1
102
RTVSPropertyOp18
 70
     1
102
RTVSPropertyOp19
 70
     1
102
RTVSPropertyOp20
 70
     1
102
RTVSPropertyOp21
 70
     1
102
RTVSPropertyOp22
 70
     1
102
RTVSPropertyOp23
 70
     1
102
RTVSPropertyOp24
 70
     1
102
RTVSPropertyOp25
 70
     1
102
RTVSPropertyOp26
 70
     1
102
RTVSPropertyOp27
 70
     1
102
RTVSPropertyOp28
 70
     1
102
RTVSPropertyOp29
 70
     1
102
RTVSPropertyOp30
 70
     1
102
RTVSPropertyOp31
 70
     1
102
RTVSPropertyOp32
 70
     1
  0
XRECORD
  5
A19
102
{ACAD_REACTORS
330
A18
102
}
330
A18
100
AcDbXrecord
280
     1
102
RTVSPropertyOp0
 70
     0
102
RTVSPropertyOp1
 70
     0
102
RTVSPropertyOp2
 70
     0
102
RTVSPropertyOp3
 70
     0
102
RTVSPropertyOp4
 70
     0
102
RTVSPropertyOp5
 70
     0
102
RTVSPropertyOp6
 70
     0
102
RTVSPropertyOp7
 70
     0
102
RTVSPropertyOp8
 70
     0
102
RTVSPropertyOp9
 70
     0
102
RTVSPropertyOp10
 70
     0
102
RTVSPropertyOp11
 70
     0
102
RTVSPropertyOp12
 70
     0
102
RTVSPropertyOp13
 70
     0
102
RTVSPropertyOp14
 70
     2
102
RTVSPropertyOp15
 70
     0
102
RTVSPropertyOp16
 70
     0
102
RTVSPropertyOp17
 70
     0
102
RTVSPropertyOp18
 70
     0
102
RTVSPropertyOp19
 70
     0
102
RTVSPropertyOp20
 70
     0
102
RTVSPropertyOp21
 70
     0
102
RTVSPropertyOp22
 70
     0
102
RTVSPropertyOp23
 70
     0
102
RTVSPropertyOp24
 70
     0
102
RTVSPropertyOp25
 70
     0
102
RTVSPropertyOp26
 70
     0
102
RTVSPropertyOp27
 70
     0
102
RTVSPropertyOp28
 70
     0
102
RTVSPropertyOp29
 70
     0
102
RTVSPropertyOp30
 70
     0
102
RTVSPropertyOp31
 70
     0
102
RTVSPropertyOp32
 70
     0
  0
XRECORD
  5
A07
102
{ACAD_REACTORS
330
A06
102
}
330
A06
100
AcDbXrecord
280
     1
102
RTVSPropertyOp0
 70
     1
102
RTVSPropertyOp1
 70
     1
102
RTVSPropertyOp2
 70
     1
102
RTVSPropertyOp3
 70
     1
102
RTVSPropertyOp4
 70
     1
102
RTVSPropertyOp5
 70
     1
102
RTVSPropertyOp6
 70
     1
102
RTVSPropertyOp7
 70
     1
102
RTVSPropertyOp8
 70
     1
102
RTVSPropertyOp9
 70
     1
102
RTVSPropertyOp10
 70
     1
102
RTVSPropertyOp11
 70
     1
102
RTVSPropertyOp12
 70
     1
102
RTVSPropertyOp13
 70
     1
102
RTVSPropertyOp14
 70
     1
102
RTVSPropertyOp15
 70
     1
102
RTVSPropertyOp16
 70
     1
102
RTVSPropertyOp17
 70
     1
102
RTVSPropertyOp18
 70
     1
102
RTVSPropertyOp19
 70
     1
102
RTVSPropertyOp20
 70
     1
102
RTVSPropertyOp21
 70
     1
102
RTVSPropertyOp22
 70
     1
102
RTVSPropertyOp23
 70
     1
102
RTVSPropertyOp24
 70
     1
102
RTVSPropertyOp25
 70
     1
102
RTVSPropertyOp26
 70
     1
102
RTVSPropertyOp27
 70
     1
102
RTVSPropertyOp28
 70
     1
102
RTVSPropertyOp29
 70
     1
102
RTVSPropertyOp30
 70
     1
102
RTVSPropertyOp31
 70
     1
102
RTVSPropertyOp32
 70
     1
  0
XRECORD
  5
9EB
102
{ACAD_REACTORS
330
9EA
102
}
330
9EA
100
AcDbXrecord
280
     1
102
RTVSPropertyOp0
 70
     1
102
RTVSPropertyOp1
 70
     1
102
RTVSPropertyOp2
 70
     1
102
RTVSPropertyOp3
 70
     1
102
RTVSPropertyOp4
 70
     1
102
RTVSPropertyOp5
 70
     1
102
RTVSPropertyOp6
 70
     1
102
RTVSPropertyOp7
 70
     1
102
RTVSPropertyOp8
 70
     1
102
RTVSPropertyOp9
 70
     1
102
RTVSPropertyOp10
 70
     1
102
RTVSPropertyOp11
 70
     1
102
RTVSPropertyOp12
 70
     1
102
RTVSPropertyOp13
 70
     1
102
RTVSPropertyOp14
 70
     1
102
RTVSPropertyOp15
 70
     1
102
RTVSPropertyOp16
 70
     1
102
RTVSPropertyOp17
 70
     1
102
RTVSPropertyOp18
 70
     1
102
RTVSPropertyOp19
 70
     1
102
RTVSPropertyOp20
 70
     1
102
RTVSPropertyOp21
 70
     1
102
RTVSPropertyOp22
 70
     1
102
RTVSPropertyOp23
 70
     1
102
RTVSPropertyOp24
 70
     1
102
RTVSPropertyOp25
 70
     1
102
RTVSPropertyOp26
 70
     1
102
RTVSPropertyOp27
 70
     1
102
RTVSPropertyOp28
 70
     1
102
RTVSPropertyOp29
 70
     1
102
RTVSPropertyOp30
 70
     1
102
RTVSPropertyOp31
 70
     1
102
RTVSPropertyOp32
 70
     1
  0
XRECORD
  5
9ED
102
{ACAD_REACTORS
330
9EC
102
}
330
9EC
100
AcDbXrecord
280
     1
102
RTVSPropertyOp0
 70
     1
102
RTVSPropertyOp1
 70
     1
102
RTVSPropertyOp2
 70
     1
102
RTVSPropertyOp3
 70
     1
102
RTVSPropertyOp4
 70
     1
102
RTVSPropertyOp5
 70
     1
102
RTVSPropertyOp6
 70
     1
102
RTVSPropertyOp7
 70
     1
102
RTVSPropertyOp8
 70
     1
102
RTVSPropertyOp9
 70
     1
102
RTVSPropertyOp10
 70
     1
102
RTVSPropertyOp11
 70
     1
102
RTVSPropertyOp12
 70
     1
102
RTVSPropertyOp13
 70
     1
102
RTVSPropertyOp14
 70
     1
102
RTVSPropertyOp15
 70
     1
102
RTVSPropertyOp16
 70
     1
102
RTVSPropertyOp17
 70
     1
102
RTVSPropertyOp18
 70
     1
102
RTVSPropertyOp19
 70
     1
102
RTVSPropertyOp20
 70
     1
102
RTVSPropertyOp21
 70
     1
102
RTVSPropertyOp22
 70
     1
102
RTVSPropertyOp23
 70
     1
102
RTVSPropertyOp24
 70
     1
102
RTVSPropertyOp25
 70
     1
102
RTVSPropertyOp26
 70
     1
102
RTVSPropertyOp27
 70
     1
102
RTVSPropertyOp28
 70
     1
102
RTVSPropertyOp29
 70
     1
102
RTVSPropertyOp30
 70
     1
102
RTVSPropertyOp31
 70
     1
102
RTVSPropertyOp32
 70
     1
  0
XRECORD
  5
9EF
102
{ACAD_REACTORS
330
9EE
102
}
330
9EE
100
AcDbXrecord
280
     1
102
RTVSPropertyOp0
 70
     1
102
RTVSPropertyOp1
 70
     1
102
RTVSPropertyOp2
 70
     1
102
RTVSPropertyOp3
 70
     1
102
RTVSPropertyOp4
 70
     1
102
RTVSPropertyOp5
 70
     1
102
RTVSPropertyOp6
 70
     1
102
RTVSPropertyOp7
 70
     1
102
RTVSPropertyOp8
 70
     1
102
RTVSPropertyOp9
 70
     1
102
RTVSPropertyOp10
 70
     1
102
RTVSPropertyOp11
 70
     1
102
RTVSPropertyOp12
 70
     1
102
RTVSPropertyOp13
 70
     1
102
RTVSPropertyOp14
 70
     1
102
RTVSPropertyOp15
 70
     1
102
RTVSPropertyOp16
 70
     1
102
RTVSPropertyOp17
 70
     1
102
RTVSPropertyOp18
 70
     1
102
RTVSPropertyOp19
 70
     1
102
RTVSPropertyOp20
 70
     1
102
RTVSPropertyOp21
 70
     1
102
RTVSPropertyOp22
 70
     1
102
RTVSPropertyOp23
 70
     1
102
RTVSPropertyOp24
 70
     1
102
RTVSPropertyOp25
 70
     1
102
RTVSPropertyOp26
 70
     1
102
RTVSPropertyOp27
 70
     1
102
RTVSPropertyOp28
 70
     1
102
RTVSPropertyOp29
 70
     1
102
RTVSPropertyOp30
 70
     1
102
RTVSPropertyOp31
 70
     1
102
RTVSPropertyOp32
 70
     1
  0
XRECORD
  5
9F1
102
{ACAD_REACTORS
330
9F0
102
}
330
9F0
100
AcDbXrecord
280
     1
102
RTVSPropertyOp0
 70
     1
102
RTVSPropertyOp1
 70
     1
102
RTVSPropertyOp2
 70
     1
102
RTVSPropertyOp3
 70
     1
102
RTVSPropertyOp4
 70
     1
102
RTVSPropertyOp5
 70
     1
102
RTVSPropertyOp6
 70
     1
102
RTVSPropertyOp7
 70
     1
102
RTVSPropertyOp8
 70
     1
102
RTVSPropertyOp9
 70
     1
102
RTVSPropertyOp10
 70
     1
102
RTVSPropertyOp11
 70
     1
102
RTVSPropertyOp12
 70
     1
102
RTVSPropertyOp13
 70
     1
102
RTVSPropertyOp14
 70
     1
102
RTVSPropertyOp15
 70
     1
102
RTVSPropertyOp16
 70
     1
102
RTVSPropertyOp17
 70
     1
102
RTVSPropertyOp18
 70
     1
102
RTVSPropertyOp19
 70
     1
102
RTVSPropertyOp20
 70
     1
102
RTVSPropertyOp21
 70
     1
102
RTVSPropertyOp22
 70
     1
102
RTVSPropertyOp23
 70
     1
102
RTVSPropertyOp24
 70
     1
102
RTVSPropertyOp25
 70
     1
102
RTVSPropertyOp26
 70
     1
102
RTVSPropertyOp27
 70
     1
102
RTVSPropertyOp28
 70
     1
102
RTVSPropertyOp29
 70
     1
102
RTVSPropertyOp30
 70
     1
102
RTVSPropertyOp31
 70
     1
102
RTVSPropertyOp32
 70
     1
  0
XRECORD
  5
9F9
102
{ACAD_REACTORS
330
9F8
102
}
330
9F8
100
AcDbXrecord
280
     1
102
RTVSPropertyOp0
 70
     1
102
RTVSPropertyOp1
 70
     1
102
RTVSPropertyOp2
 70
     1
102
RTVSPropertyOp3
 70
     1
102
RTVSPropertyOp4
 70
     1
102
RTVSPropertyOp5
 70
     1
102
RTVSPropertyOp6
 70
     1
102
RTVSPropertyOp7
 70
     1
102
RTVSPropertyOp8
 70
     1
102
RTVSPropertyOp9
 70
     1
102
RTVSPropertyOp10
 70
     1
102
RTVSPropertyOp11
 70
     1
102
RTVSPropertyOp12
 70
     1
102
RTVSPropertyOp13
 70
     1
102
RTVSPropertyOp14
 70
     1
102
RTVSPropertyOp15
 70
     1
102
RTVSPropertyOp16
 70
     1
102
RTVSPropertyOp17
 70
     1
102
RTVSPropertyOp18
 70
     1
102
RTVSPropertyOp19
 70
     1
102
RTVSPropertyOp20
 70
     1
102
RTVSPropertyOp21
 70
     1
102
RTVSPropertyOp22
 70
     1
102
RTVSPropertyOp23
 70
     1
102
RTVSPropertyOp24
 70
     1
102
RTVSPropertyOp25
 70
     1
102
RTVSPropertyOp26
 70
     1
102
RTVSPropertyOp27
 70
     1
102
RTVSPropertyOp28
 70
     1
102
RTVSPropertyOp29
 70
     1
102
RTVSPropertyOp30
 70
     1
102
RTVSPropertyOp31
 70
     1
102
RTVSPropertyOp32
 70
     1
  0
XRECORD
  5
A15
102
{ACAD_REACTORS
330
A14
102
}
330
A14
100
AcDbXrecord
280
     1
102
RTVSPropertyOp0
 70
     0
102
RTVSPropertyOp1
 70
     0
102
RTVSPropertyOp2
 70
     0
102
RTVSPropertyOp3
 70
     0
102
RTVSPropertyOp4
 70
     0
102
RTVSPropertyOp5
 70
     0
102
RTVSPropertyOp6
 70
     0
102
RTVSPropertyOp7
 70
     0
102
RTVSPropertyOp8
 70
     0
102
RTVSPropertyOp9
 70
     0
102
RTVSPropertyOp10
 70
     0
102
RTVSPropertyOp11
 70
     0
102
RTVSPropertyOp12
 70
     0
102
RTVSPropertyOp13
 70
     0
102
RTVSPropertyOp14
 70
     2
102
RTVSPropertyOp15
 70
     0
102
RTVSPropertyOp16
 70
     0
102
RTVSPropertyOp17
 70
     0
102
RTVSPropertyOp18
 70
     0
102
RTVSPropertyOp19
 70
     0
102
RTVSPropertyOp20
 70
     0
102
RTVSPropertyOp21
 70
     0
102
RTVSPropertyOp22
 70
     0
102
RTVSPropertyOp23
 70
     0
102
RTVSPropertyOp24
 70
     0
102
RTVSPropertyOp25
 70
     0
102
RTVSPropertyOp26
 70
     0
102
RTVSPropertyOp27
 70
     0
102
RTVSPropertyOp28
 70
     0
102
RTVSPropertyOp29
 70
     0
102
RTVSPropertyOp30
 70
     0
102
RTVSPropertyOp31
 70
     0
102
RTVSPropertyOp32
 70
     0
  0
XRECORD
  5
A05
102
{ACAD_REACTORS
330
A04
102
}
330
A04
100
AcDbXrecord
280
     1
102
RTVSPropertyOp0
 70
     1
102
RTVSPropertyOp1
 70
     1
102
RTVSPropertyOp2
 70
     1
102
RTVSPropertyOp3
 70
     1
102
RTVSPropertyOp4
 70
     1
102
RTVSPropertyOp5
 70
     1
102
RTVSPropertyOp6
 70
     1
102
RTVSPropertyOp7
 70
     1
102
RTVSPropertyOp8
 70
     1
102
RTVSPropertyOp9
 70
     1
102
RTVSPropertyOp10
 70
     1
102
RTVSPropertyOp11
 70
     1
102
RTVSPropertyOp12
 70
     1
102
RTVSPropertyOp13
 70
     1
102
RTVSPropertyOp14
 70
     1
102
RTVSPropertyOp15
 70
     1
102
RTVSPropertyOp16
 70
     1
102
RTVSPropertyOp17
 70
     1
102
RTVSPropertyOp18
 70
     1
102
RTVSPropertyOp19
 70
     1
102
RTVSPropertyOp20
 70
     1
102
RTVSPropertyOp21
 70
     1
102
RTVSPropertyOp22
 70
     1
102
RTVSPropertyOp23
 70
     1
102
RTVSPropertyOp24
 70
     1
102
RTVSPropertyOp25
 70
     1
102
RTVSPropertyOp26
 70
     1
102
RTVSPropertyOp27
 70
     1
102
RTVSPropertyOp28
 70
     1
102
RTVSPropertyOp29
 70
     1
102
RTVSPropertyOp30
 70
     1
102
RTVSPropertyOp31
 70
     1
102
RTVSPropertyOp32
 70
     1
  0
XRECORD
  5
A17
102
{ACAD_REACTORS
330
A16
102
}
330
A16
100
AcDbXrecord
280
     1
102
RTVSPropertyOp0
 70
     0
102
RTVSPropertyOp1
 70
     0
102
RTVSPropertyOp2
 70
     0
102
RTVSPropertyOp3
 70
     0
102
RTVSPropertyOp4
 70
     0
102
RTVSPropertyOp5
 70
     0
102
RTVSPropertyOp6
 70
     0
102
RTVSPropertyOp7
 70
     0
102
RTVSPropertyOp8
 70
     0
102
RTVSPropertyOp9
 70
     0
102
RTVSPropertyOp10
 70
     0
102
RTVSPropertyOp11
 70
     0
102
RTVSPropertyOp12
 70
     0
102
RTVSPropertyOp13
 70
     0
102
RTVSPropertyOp14
 70
     2
102
RTVSPropertyOp15
 70
     0
102
RTVSPropertyOp16
 70
     0
102
RTVSPropertyOp17
 70
     0
102
RTVSPropertyOp18
 70
     0
102
RTVSPropertyOp19
 70
     0
102
RTVSPropertyOp20
 70
     0
102
RTVSPropertyOp21
 70
     0
102
RTVSPropertyOp22
 70
     0
102
RTVSPropertyOp23
 70
     0
102
RTVSPropertyOp24
 70
     0
102
RTVSPropertyOp25
 70
     0
102
RTVSPropertyOp26
 70
     0
102
RTVSPropertyOp27
 70
     0
102
RTVSPropertyOp28
 70
     0
102
RTVSPropertyOp29
 70
     0
102
RTVSPropertyOp30
 70
     0
102
RTVSPropertyOp31
 70
     0
102
RTVSPropertyOp32
 70
     0
  0
XRECORD
  5
9FD
102
{ACAD_REACTORS
330
9FC
102
}
330
9FC
100
AcDbXrecord
280
     1
102
RTVSPropertyOp0
 70
     1
102
RTVSPropertyOp1
 70
     1
102
RTVSPropertyOp2
 70
     1
102
RTVSPropertyOp3
 70
     1
102
RTVSPropertyOp4
 70
     1
102
RTVSPropertyOp5
 70
     1
102
RTVSPropertyOp6
 70
     1
102
RTVSPropertyOp7
 70
     1
102
RTVSPropertyOp8
 70
     1
102
RTVSPropertyOp9
 70
     1
102
RTVSPropertyOp10
 70
     1
102
RTVSPropertyOp11
 70
     1
102
RTVSPropertyOp12
 70
     1
102
RTVSPropertyOp13
 70
     1
102
RTVSPropertyOp14
 70
     1
102
RTVSPropertyOp15
 70
     1
102
RTVSPropertyOp16
 70
     1
102
RTVSPropertyOp17
 70
     1
102
RTVSPropertyOp18
 70
     1
102
RTVSPropertyOp19
 70
     1
102
RTVSPropertyOp20
 70
     1
102
RTVSPropertyOp21
 70
     1
102
RTVSPropertyOp22
 70
     1
102
RTVSPropertyOp23
 70
     1
102
RTVSPropertyOp24
 70
     1
102
RTVSPropertyOp25
 70
     1
102
RTVSPropertyOp26
 70
     1
102
RTVSPropertyOp27
 70
     1
102
RTVSPropertyOp28
 70
     1
102
RTVSPropertyOp29
 70
     1
102
RTVSPropertyOp30
 70
     1
102
RTVSPropertyOp31
 70
     1
102
RTVSPropertyOp32
 70
     1
  0
XRECORD
  5
A13
102
{ACAD_REACTORS
330
A12
102
}
330
A12
100
AcDbXrecord
280
     1
102
RTVSPropertyOp0
 70
     1
102
RTVSPropertyOp1
 70
     1
102
RTVSPropertyOp2
 70
     1
102
RTVSPropertyOp3
 70
     1
102
RTVSPropertyOp4
 70
     1
102
RTVSPropertyOp5
 70
     1
102
RTVSPropertyOp6
 70
     1
102
RTVSPropertyOp7
 70
     1
102
RTVSPropertyOp8
 70
     1
102
RTVSPropertyOp9
 70
     1
102
RTVSPropertyOp10
 70
     1
102
RTVSPropertyOp11
 70
     1
102
RTVSPropertyOp12
 70
     1
102
RTVSPropertyOp13
 70
     1
102
RTVSPropertyOp14
 70
     1
102
RTVSPropertyOp15
 70
     1
102
RTVSPropertyOp16
 70
     1
102
RTVSPropertyOp17
 70
     1
102
RTVSPropertyOp18
 70
     1
102
RTVSPropertyOp19
 70
     1
102
RTVSPropertyOp20
 70
     1
102
RTVSPropertyOp21
 70
     1
102
RTVSPropertyOp22
 70
     1
102
RTVSPropertyOp23
 70
     1
102
RTVSPropertyOp24
 70
     1
102
RTVSPropertyOp25
 70
     1
102
RTVSPropertyOp26
 70
     1
102
RTVSPropertyOp27
 70
     1
102
RTVSPropertyOp28
 70
     1
102
RTVSPropertyOp29
 70
     1
102
RTVSPropertyOp30
 70
     1
102
RTVSPropertyOp31
 70
     1
102
RTVSPropertyOp32
 70
     1
  0
XRECORD
  5
A11
102
{ACAD_REACTORS
330
A10
102
}
330
A10
100
AcDbXrecord
280
     1
102
RTVSPropertyOp0
 70
     1
102
RTVSPropertyOp1
 70
     1
102
RTVSPropertyOp2
 70
     1
102
RTVSPropertyOp3
 70
     1
102
RTVSPropertyOp4
 70
     1
102
RTVSPropertyOp5
 70
     1
102
RTVSPropertyOp6
 70
     1
102
RTVSPropertyOp7
 70
     1
102
RTVSPropertyOp8
 70
     1
102
RTVSPropertyOp9
 70
     1
102
RTVSPropertyOp10
 70
     1
102
RTVSPropertyOp11
 70
     1
102
RTVSPropertyOp12
 70
     1
102
RTVSPropertyOp13
 70
     1
102
RTVSPropertyOp14
 70
     1
102
RTVSPropertyOp15
 70
     1
102
RTVSPropertyOp16
 70
     1
102
RTVSPropertyOp17
 70
     1
102
RTVSPropertyOp18
 70
     1
102
RTVSPropertyOp19
 70
     1
102
RTVSPropertyOp20
 70
     1
102
RTVSPropertyOp21
 70
     1
102
RTVSPropertyOp22
 70
     1
102
RTVSPropertyOp23
 70
     1
102
RTVSPropertyOp24
 70
     1
102
RTVSPropertyOp25
 70
     1
102
RTVSPropertyOp26
 70
     1
102
RTVSPropertyOp27
 70
     1
102
RTVSPropertyOp28
 70
     1
102
RTVSPropertyOp29
 70
     1
102
RTVSPropertyOp30
 70
     1
102
RTVSPropertyOp31
 70
     1
102
RTVSPropertyOp32
 70
     1
  0
XRECORD
  5
A0B
102
{ACAD_REACTORS
330
A0A
102
}
330
A0A
100
AcDbXrecord
280
     1
102
RTVSPropertyOp0
 70
     1
102
RTVSPropertyOp1
 70
     1
102
RTVSPropertyOp2
 70
     1
102
RTVSPropertyOp3
 70
     1
102
RTVSPropertyOp4
 70
     1
102
RTVSPropertyOp5
 70
     1
102
RTVSPropertyOp6
 70
     1
102
RTVSPropertyOp7
 70
     1
102
RTVSPropertyOp8
 70
     1
102
RTVSPropertyOp9
 70
     1
102
RTVSPropertyOp10
 70
     1
102
RTVSPropertyOp11
 70
     1
102
RTVSPropertyOp12
 70
     1
102
RTVSPropertyOp13
 70
     1
102
RTVSPropertyOp14
 70
     1
102
RTVSPropertyOp15
 70
     1
102
RTVSPropertyOp16
 70
     1
102
RTVSPropertyOp17
 70
     1
102
RTVSPropertyOp18
 70
     1
102
RTVSPropertyOp19
 70
     1
102
RTVSPropertyOp20
 70
     1
102
RTVSPropertyOp21
 70
     1
102
RTVSPropertyOp22
 70
     1
102
RTVSPropertyOp23
 70
     1
102
RTVSPropertyOp24
 70
     1
102
RTVSPropertyOp25
 70
     1
102
RTVSPropertyOp26
 70
     1
102
RTVSPropertyOp27
 70
     1
102
RTVSPropertyOp28
 70
     1
102
RTVSPropertyOp29
 70
     1
102
RTVSPropertyOp30
 70
     1
102
RTVSPropertyOp31
 70
     1
102
RTVSPropertyOp32
 70
     1
  0
XRECORD
  5
A0D
102
{ACAD_REACTORS
330
A0C
102
}
330
A0C
100
AcDbXrecord
280
     1
102
RTVSPropertyOp0
 70
     1
102
RTVSPropertyOp1
 70
     1
102
RTVSPropertyOp2
 70
     1
102
RTVSPropertyOp3
 70
     1
102
RTVSPropertyOp4
 70
     1
102
RTVSPropertyOp5
 70
     1
102
RTVSPropertyOp6
 70
     1
102
RTVSPropertyOp7
 70
     1
102
RTVSPropertyOp8
 70
     1
102
RTVSPropertyOp9
 70
     1
102
RTVSPropertyOp10
 70
     1
102
RTVSPropertyOp11
 70
     1
102
RTVSPropertyOp12
 70
     1
102
RTVSPropertyOp13
 70
     1
102
RTVSPropertyOp14
 70
     1
102
RTVSPropertyOp15
 70
     1
102
RTVSPropertyOp16
 70
     1
102
RTVSPropertyOp17
 70
     1
102
RTVSPropertyOp18
 70
     1
102
RTVSPropertyOp19
 70
     1
102
RTVSPropertyOp20
 70
     1
102
RTVSPropertyOp21
 70
     1
102
RTVSPropertyOp22
 70
     1
102
RTVSPropertyOp23
 70
     1
102
RTVSPropertyOp24
 70
     1
102
RTVSPropertyOp25
 70
     1
102
RTVSPropertyOp26
 70
     1
102
RTVSPropertyOp27
 70
     1
102
RTVSPropertyOp28
 70
     1
102
RTVSPropertyOp29
 70
     1
102
RTVSPropertyOp30
 70
     1
102
RTVSPropertyOp31
 70
     1
102
RTVSPropertyOp32
 70
     1
  0
XRECORD
  5
A03
102
{ACAD_REACTORS
330
A02
102
}
330
A02
100
AcDbXrecord
280
     1
102
RTVSPropertyOp0
 70
     1
102
RTVSPropertyOp1
 70
     1
102
RTVSPropertyOp2
 70
     1
102
RTVSPropertyOp3
 70
     1
102
RTVSPropertyOp4
 70
     1
102
RTVSPropertyOp5
 70
     1
102
RTVSPropertyOp6
 70
     1
102
RTVSPropertyOp7
 70
     1
102
RTVSPropertyOp8
 70
     1
102
RTVSPropertyOp9
 70
     1
102
RTVSPropertyOp10
 70
     1
102
RTVSPropertyOp11
 70
     1
102
RTVSPropertyOp12
 70
     1
102
RTVSPropertyOp13
 70
     1
102
RTVSPropertyOp14
 70
     1
102
RTVSPropertyOp15
 70
     1
102
RTVSPropertyOp16
 70
     1
102
RTVSPropertyOp17
 70
     1
102
RTVSPropertyOp18
 70
     1
102
RTVSPropertyOp19
 70
     1
102
RTVSPropertyOp20
 70
     1
102
RTVSPropertyOp21
 70
     1
102
RTVSPropertyOp22
 70
     1
102
RTVSPropertyOp23
 70
     1
102
RTVSPropertyOp24
 70
     1
102
RTVSPropertyOp25
 70
     1
102
RTVSPropertyOp26
 70
     1
102
RTVSPropertyOp27
 70
     1
102
RTVSPropertyOp28
 70
     1
102
RTVSPropertyOp29
 70
     1
102
RTVSPropertyOp30
 70
     1
102
RTVSPropertyOp31
 70
     1
102
RTVSPropertyOp32
 70
     1
  0
XRECORD
  5
9F7
102
{ACAD_REACTORS
330
9F6
102
}
330
9F6
100
AcDbXrecord
280
     1
102
RTVSPropertyOp0
 70
     1
102
RTVSPropertyOp1
 70
     1
102
RTVSPropertyOp2
 70
     1
102
RTVSPropertyOp3
 70
     1
102
RTVSPropertyOp4
 70
     1
102
RTVSPropertyOp5
 70
     1
102
RTVSPropertyOp6
 70
     1
102
RTVSPropertyOp7
 70
     1
102
RTVSPropertyOp8
 70
     1
102
RTVSPropertyOp9
 70
     1
102
RTVSPropertyOp10
 70
     1
102
RTVSPropertyOp11
 70
     1
102
RTVSPropertyOp12
 70
     1
102
RTVSPropertyOp13
 70
     1
102
RTVSPropertyOp14
 70
     1
102
RTVSPropertyOp15
 70
     1
102
RTVSPropertyOp16
 70
     1
102
RTVSPropertyOp17
 70
     1
102
RTVSPropertyOp18
 70
     1
102
RTVSPropertyOp19
 70
     1
102
RTVSPropertyOp20
 70
     1
102
RTVSPropertyOp21
 70
     1
102
RTVSPropertyOp22
 70
     1
102
RTVSPropertyOp23
 70
     1
102
RTVSPropertyOp24
 70
     1
102
RTVSPropertyOp25
 70
     1
102
RTVSPropertyOp26
 70
     1
102
RTVSPropertyOp27
 70
     1
102
RTVSPropertyOp28
 70
     1
102
RTVSPropertyOp29
 70
     1
102
RTVSPropertyOp30
 70
     1
102
RTVSPropertyOp31
 70
     1
102
RTVSPropertyOp32
 70
     1
  0
XRECORD
  5
A0F
102
{ACAD_REACTORS
330
A0E
102
}
330
A0E
100
AcDbXrecord
280
     1
102
RTVSPropertyOp0
 70
     1
102
RTVSPropertyOp1
 70
     1
102
RTVSPropertyOp2
 70
     1
102
RTVSPropertyOp3
 70
     1
102
RTVSPropertyOp4
 70
     1
102
RTVSPropertyOp5
 70
     1
102
RTVSPropertyOp6
 70
     1
102
RTVSPropertyOp7
 70
     1
102
RTVSPropertyOp8
 70
     1
102
RTVSPropertyOp9
 70
     1
102
RTVSPropertyOp10
 70
     1
102
RTVSPropertyOp11
 70
     1
102
RTVSPropertyOp12
 70
     1
102
RTVSPropertyOp13
 70
     1
102
RTVSPropertyOp14
 70
     1
102
RTVSPropertyOp15
 70
     1
102
RTVSPropertyOp16
 70
     1
102
RTVSPropertyOp17
 70
     1
102
RTVSPropertyOp18
 70
     1
102
RTVSPropertyOp19
 70
     1
102
RTVSPropertyOp20
 70
     1
102
RTVSPropertyOp21
 70
     1
102
RTVSPropertyOp22
 70
     1
102
RTVSPropertyOp23
 70
     1
102
RTVSPropertyOp24
 70
     1
102
RTVSPropertyOp25
 70
     1
102
RTVSPropertyOp26
 70
     1
102
RTVSPropertyOp27
 70
     1
102
RTVSPropertyOp28
 70
     1
102
RTVSPropertyOp29
 70
     1
102
RTVSPropertyOp30
 70
     1
102
RTVSPropertyOp31
 70
     1
102
RTVSPropertyOp32
 70
     1
  0
ENDSEC
  0
EOF
